Master Of Puppets

Battery, Master Of Puppets, The Thing That Should Not Be

This week it’s time for metal masters Metallica and their Master Of Puppets album. I was joined on this one by my buddy Dyl, we play together in our band Bud Sugar. He’s a metalhead at heart so I knew I needed to draft him in for this one!

 

Another band that took over my life in my teens. I remember always seeing this live performance of “For Whom The Bell Tolls” on tv and been awed by it. They played with so much ferocity, the fans looked hypnotised! Then one night after school while in Asda with my mam i walk past the magazine section and saw Metal Hammer. The cover was covered in white graves and a sinister looking sunset, “the greatest album of all time” the headline read. I got my hands of a copy of the album later that week. That opening acoustic riff of Battery was an instant winner, i was already loving it and then the distorted guitars come in….Metal Hammer mag was right, this album is amazing!

This video is part of a project I’m working on. I’m learning to play my favourite albums on a ukulele. If you enjoyed it why not check out some other classic albums that I arranged like Korn or Rammstein.

Metallica Ukulele Tabs

Not sure how to read these? Check out this guide and you will be learning these ukulele tabs in no time.

Battery

A|-7/8/7----7----7----5-5----|-
E|-4--------5----5------3----|-
C|-4--------5----6------4----|-
G|-4--------5----------------|-

A|---0--------0--------0--------0---|- E|-3--------3--------3------------3-|- C|-----4--------4--------4-2--------|- G|----------------------------------|-

A|-5-7------5----7------5/7--------7-5-
E|-7/8-8----7----8-8----7-8-8-7----8-7-
C|-----9-----------9--------9-7--------
G|-------------------------------------

Master Of Puppets

A|-7----5-4-3-|-----------------5-4-3-|-------------------------3-3-|-
E|-8----6-5-4-|-----------------6-5-4-|-------------------------3-3-|-
C|------------|-----------------------|-----------------------------|-
G|------------|-----------------------|-----------------------------|-

A|------------|-----------------------|-----------------------------|- E|-8----6-5-4-|-----8-----7-----6-5-4-|-----------------------------|- C|-7----5-4-3-|-0-0---0-0---0-0-5-4-3-|-0-0-7-0-0-6-5h0-4h0-3h0-0-0-|- G|------------|-----------------------|-----------------------------|-
Solo

A|-----3-6-----8---|-3h5p3-------|-----6---6-------|------------------------- E|---3-------6---6-|-------6-1---|---6---6---6---6-|---1-3-1---3-4-3---7-8-7- C|-0-------5-------|-----------3-|-3-----------3---|-0-------0-------0------- G|-----------------|-------------|-----------------|-------------------------
A|---10-6---8-5---|---8-5---6-3---|---6-3---5-3h5p3p2-|---------2-3-5-4- E|-8------8-----6-|-6-----6-----4-|-4-----4-----------|-3-4-6-4--------- C|----------------|---------------|-------------------|----------------- G|----------------|---------------|-------------------|-----------------

The Thing That Should Not Be

A|------------------   -------------
E|-----6---7---8----   ------2-4----
C|-2/4---4---4------   ------2-4----
G|------------------   ------2/4----

More songs from this album?

Support the site by joining Learn The Licks and getting easy to print PDFs of 150+ albums

login

Badge Unlocked

Welcome To The Jungle

Complete your first lesson

Badge Unlocked

Start Me Up

Complete The Basics

The Basics

In this section, we will cover everything you need to know about starting to play the ukulele.