Hard Times, Told You So, 26

Hard Times, Told You So, 26

I would probably go as far as saying this is my favourite Paramore album. Its a massive leap from their previous albums but the songs just seem much better crafted IMO. Its quite amazing considering the future of the band could have been way different if HW decided not to continue with it.

This video is part of a project I’m working on. I’m learning to play my favourite albums on a ukulele. If you enjoyed it why not check out some other classic albums that I arranged. Like Jimmy Eat World or Blink 182.

Paramore Ukulele Tabs

Not sure how to read these? Check out my free course and you will be learning these ukulele tabs in no time.

Hard Times

A |---6----8-----8-----6---------6-----8-----8---10---- 
E |-6----8---------8-----6-----6-----8---------8----11-
C |----------------------------------------------------
G |----------------------------------------------------
 


A |----------6-----------3------------6------------3--|--------9-8-|
E |----------3-----------4------------3------------4--|--4-6-8-----|
C |---3---5--3--5---3----3-----3---5--3---5---7----3--|------------|
G |-3---5----3----5---3--5---3---5----3-----5---8--5--|------------| 


A |---------------------------------------------------------
E |---6-6-6-3-3-------3-----------6-6-6-3-3-------3-6-6-----
C |-5-----------5-3-5---5-3-6-3-------------5-3-5-------6-5-
G |--------------------------------------------------------- 


A |-----3-------------------------------
E |-6-6---6-3-3-------3-----------------
C |-------------5-3-5---5-3---6-5---6-3-
G |-------------------------------------

Told You So

A |-------------------------------------|-8-----7-----8-----7-----|
E |-------6-5-------8-6-5-----5---------|---10----8-----10----8---|
C |-4-5-7-----------------7-5------x2---|-------------------------|
G |-----------5-7---------------7-------|-------------------------|

26

A |---0---0-------0-----------------------------
E |---2---2---2-----2---2---2---2-------2-------
C |-2---2---2---2-----2-----2---2---2-----2---2-
G |-----------------------0---0---2---2-----2---

MORE SONGS FROM THIS ALBUM?

Easy-to-print PDFs tabs for over 150 albums.

Easy-to-print PDFs tabs for over 150 albums.