Ukulele Utopia

A Virtual Learning Experience

An Awesome Wave

Breezeblocks, Taro, Dissolve Me

Alt-J are one of those bands that it’s really hard to place into a genre. I was immediately drawn to Joe Newman’s vocal style, it reminded me heaps of Joanna Newsome which I found ironic given their similar names. An Awesome Wave is a unique and captivating album that has no dull moments. If you haven’t heard it yet, you won’t be disappointed.

This video is part of a project I’m working on. I’m learning to play my favourite albums on a ukulele. If you enjoyed it why not check out some other classic albums that I arranged. Like Tame Impala or Mac Demarco.

Alt J Ukulele Tabs

Not sure how to read these? Check out this guide and you will be learning these ukulele tabs in no time.

Breezeblocks

A|--0-----------------0-----0--0-----0--0--0--0--
E|--0--------5--------1-----1--1-----1--1--1--1--
C|--0--------4--------2-----2--2-----2--2--2--2--
G|--2-----2--5-----5--2-----2--2-----2--2--2--2--

A|----------------3------------------3---------------- E|-5-3-1-1----1-5---5-3-1----1-3-1-5---5-3-1----3-3--- C|--------------------------------------------------2- G|----------------------------------------------------

Taro

A|----------------------------------------------|-
E|----------------------------------------------|-
C|----------------------------------------------|-
G|-7-10-10-10-10-10-10-10-10-10-10-10-10-10-7-7-|-

Dissolve Me

A|-----2-------1---|-9-----9--9-----9--9--7-7----5----5-5----7-7----5-5-
E|---3---3---2---2-|-10----10-10----10-10-7-7----5----5-5----5-5----5-5-
C|-2-------1-------|----------------------------------------------------
G|-----------------|---------------------------------------------------

More songs from this album?

Support the site by joining Learn The Licks and getting easy to print PDFs of 150+ albums

login

Badge Unlocked

Welcome To The Jungle

Complete your first lesson

Badge Unlocked

Start Me Up

Complete The Basics

The Basics

In this section, we will cover everything you need to know about starting to play the ukulele.