Back To Black

Rehab, You know i'm no good, me and mr jones

This album totally blew me away, Amy had one hell of a voice, one of them voices that made me think of smoky, dimly lit clubs, and some of the greatest female singers of years gone by. I was devastated when i heard of her passing, Imagine what might have happened if she was allowed to just live the life she wanted to. Without the constant hounding from the press and paparazzi dictating what she can and cannot do. An album drenched in soul, passion and emotion. I love it.

This video is part of a project I’m working on. I’m learning to play my favourite albums on a ukulele. If you enjoyed it why not check out some other classic albums that I arranged. Like Fleetwood Mac or Jack Johnson.

Amy Winehouse Ukulele Tabs

Not sure how to read these? Check out this guide and you will be learning these ukulele tabs in no time.

Rehab

This riff is mimicking Amys vocal line throughout the first verse. The Chords are there to back up the vox. Perfect if you have a friend who plays the ukulele.

A|-------3---3---6----------3------3---3-|-6----3-5-3----3-6----3-5-3--------3------3---3-
E|-3-3-5---5---5------3-3h5------5---5---|-------------------------------5-3------5---5---
C|---------------------------------------|------------------------------------------------
G|---------------------------------------|------------------------------------------------

A|-3/5-5-5----7----7b9----9p7h9----------6-5-3-3---3-|-------3---3---6----------3---3---3- E|---------------------------------3-5-3---------5---|-3-3-5---5---5------3-3-5---5---5--- C|---------------------------------------------------|------------------------------------ G|---------------------------------------------------|------------------------------------
Chords

A|-1/3-------|-----------|-----------|-1/3-------|-
E|-1/3-------|-5/7-------|-3/5-------|-1/3-------|-
C|-2/4-------|-5/7-------|-3/5-------|-2/4-------|-
G|-3/5-------|-5/7-------|-3/5-------|-3/5-------|-

You Know im no good

These jazz chords sound amazing on the uke! 

A|-------0-------|-------1-------|-------0-------|-------0-------|-
E|-----1---1---1-|-----3---3---3-|-----0---0---0-|-----1---1---1-|-
C|---2-------2---|---2-------2---|---1-------1---|---2-------2---|-
G|-2-------------|-0-------------|-0-------------|-2-------------|-

A|----7-8-8----|------7------|-----------|-7-8-7-5-8-|- E|-10----------|-9h10---10---|-8---10-12-|-----------|- C|-------------|-----------9-|---9-------|-----------|- G|-------------|-------------|-----------|-----------|-

me and mr jones

A|-6-6-6----7-6-7----7-6-|-6-7-6-4-----------|-------------|-7-6-4------------------------
E|-----------------------|---------7-4-4/2/4-|-2-4-5-4-2/4-|-------4-2----2h4p2---2-------
C|-----------------------|-------------------|-------------|--------------------4---4-3/1-
G|-----------------------|-------------------|-------------|------------------------------

A|---6---7---9---6--- E|---4---5---9---7--- C|---4---6---9---8--- G|---4---6---9---9---

More songs from this album?

Support the site by joining Learn The Licks and getting easy to print PDFs of 150+ albums

login

Badge Unlocked

Welcome To The Jungle

Complete your first lesson

Badge Unlocked

Start Me Up

Complete The Basics

The Basics

In this section, we will cover everything you need to know about starting to play the ukulele.