Ukulele Utopia

A Virtual Learning Experience

Don't Smile At Me EP

Bellyache, Ocean Eyes, Hostage

I am absolutely a late bloomer Billie fan. I had heard her name knocking about and I was familiar with a song she did with Khalid. Other than that, she had slipped under my radar for ages. However last week I heard you should see me in a crown came up on my Apple Music recommended, as soon as that drop came in, my ears were like waaaaaaaaaaah? Naturally, I pulled that tune up and then spent the rest of the afternoon binging on her music.

This video is part of a project I’m working on. I’m learning to play my favourite albums on a ukulele. If you enjoyed it why not check out some other classic albums that I arranged. Like Joji or Lorde.

Billie Eilish Ukulele Tabs

Not sure how to read these? Check out this guide and you will be learning these ukulele tabs in no time.

Bellyache

A |-3--3---0------2--5---2--5--|- 
E |-0--3---0--3---3--3---3--3--|-
C |-0--0---0--0---4--4---4--4--|-
G |-0--0---2--2----------------|-
 


A |-------------------------------------|-----------------------------------
E |-7-5-7-5-7---5-3-5-3-5-3---3-0-3-0---|-5-7-7-7-5---5-3-5-5-5-3---3-0-3-0-
C |-------------------------------------|-----------------------------------
G |-------------------------------------|-----------------------------------
 


A |---------------------------------5-7-109-7-5-----5-5-5-------
E |-----3-2-------------3-2---------------------7---------7-5-7-
C |-2-4-----4-2-----2-4-----4-2---------------------------------
G |-------------4---------------4-------------------------------
 


A |-----------------------------------------------------------------------------------------
E |-5-7-5-3---7-5---7-5-3---7-5---5-7-5-3-2-------7-5-3---7-5---7-5-3---7-5---3-3-3-3-3-2---
C |---------4-------------4-----------------4---4-------4-------------4-------------------4-
G |-----------------------------------------------------------------------------------------


Ocean Eyes

A |-7--5--2-------2--5----- 
E |-8--7--3--x3---3--7--3--
C |---------------------4--
G |------------------------


Hostage

A |---------------------------------------
E |-3-------------------------------------
C |-0-4-0---0-2-4-----0-2-4-0---0-2-0-4---
G |-2-------------2-----------------------

More songs from this album?

Support the site by joining Learn The Licks and getting easy to print PDFs of 150+ albums

login

Badge Unlocked

Welcome To The Jungle

Complete your first lesson

Badge Unlocked

Start Me Up

Complete The Basics

The Basics

In this section, we will cover everything you need to know about starting to play the ukulele.