Bad Guy, When The Party's Over, I Love You

Bad Guy, When The Party's Over, I Love You

I recently got so hooked on Billie Eilish. I have to say, she did not disappoint on this new album. Let’s learn to play 3 songs from it on the ukulele.

We are learning to play Bad Guy, When The Party’s Over and I Love You. They are playable by all levels of player and shouldn’t give you too much trouble if you are just starting out.

The Full Album Arrangement

All the ukulele tabs on this page are taken from the album video I made. You can check that out below. It might be helpful to use it as a reference when you are learning to play the tab.

Billie Eilish Ukulele Tabs

Not sure how to read these? Check out my free course and you will be learning these ukulele tabs in no time.

Bad Guy

A |-------------------------------------------------------------------------
E |----------------------1--x2------------------------3---------------------
C |------------------------------0--0-3-0--0-0--0-3-0---2--2-5-2--2-2-2-2-2-
G |-0--0-3-0--0-0--0-3-0----------------------------------------------------


A |---5----4-5-4---------10---9-10-9----------12---------------
E |-3----3-------6--2--8----8--------11----10-----10-13-10-8---
C |------------------------------------------------------------
G |------------------------------------------------------------


When The Party's Over

A |----------------0-3-----5---5---5---5-8-
E |-1--3-1--3-1--3-1-----8-6-8-5-8-8-8-6---
C |-2--0-2--0-0--0-2-------5---5---5---5---
G |-3--0-2--0-2--0-3-----------------------

I Love You

A |-----2-----7-------------2-----7-------
E |---5-----5-----4-------3-----3-----4---
C |-5-----5-------------0-----0-----------
G |---------------------------------------

bury a friend Video Lesson

One of the most iconic songs of 2019 was Bury A Friend. It works super well on the uke and this nifty arrangement is super fun to play.

MORE SONGS FROM THIS ALBUM?

Easy-to-print PDFs tabs for over 150 albums.

Easy-to-print PDFs tabs for over 150 albums.