War Pigs, Planet Caravan, Fairies Wear Boots

War Pigs, Planet Caravan, Fairies Wear Boots

Black Sabbath’s second album is a masterpiece. They moved away from the blues of their first album and became much darker in tone. Toni Iommi’s riffs were forged of the purest metal and I had to smelt them on my uke!

This video is part of a project I’m working on. I’m learning to play my favourite albums on a ukulele. If you enjoyed it why not check out some other classic albums that I arranged. Like Metallica or Rammstein

Black Sabbath Ukulele Tabs

Not sure how to read these? Check out my free course and you will be learning these ukulele tabs in no time.

war pigs

A|-5-7----7-5-5-5-2-5-5-7-7/5---------------2----2-0----0-2----0-0-
E|--------------------------------------4-5------------------------
C|-2-4---------------------------2-2----2-2-4----4-2----2-4----2-4-
G|-----------------------------------------------------------------


A|----------------------7-------------------|-7-5-7-5-----------------------------------
E|------------4-4-5-5-7------7p5------------|---------7-5-4-----------------------------
C|-2/4----4-4--------------------7-4----2/4-|---------------4----4p2h4p2h4p2h4p2----2/4-
G|------------------------------------------|-------------------------------------------


Planet Caravan

A|-6-----6-6------------------------|-4/6----4------------4--------------4-4-----------
E|-6---6-6-6-----1-2-6---1-2-4---x2-|----------6-4----------6-6-4------------6-6-4-----
C|-3-3-------3-1-------1------------|--------------3-3------------3-3--------------3-3-
G|----------------------------------|--------------------------------------------------

Faires Wear Boots

A|------10--------10------10-|-----10----------10------10-|
E|-------------------8-10----|--------------------8-10----|
C|-7----------7-7------------|-7-7----7----7-7------------|
G|---------------------------|----------------------------|


A|-------------------7----7----10-10-12-12-|------------------------------
E|----------8---8-10---10---10-------------|-------8---8-10-8---8---------
C|-9----9-9---9----------------------------|-9-9-9---9--------9---9-7-9-9-
G|-----------------------------------------|------------------------------

MORE SONGS FROM THIS ALBUM?

Easy-to-print PDFs tabs for over 150 albums.

Easy-to-print PDFs tabs for over 150 albums.