Dumpweed, Adams Song, Mutt

Dumpweed, Adams Song, Mutt

About as dumb, adolescent, puerile, and fookin’ excellent as you’re likely to get. Their previous efforts were pretty stripped down pop-punk but this had the good fortune to be well-produced which opened it up and struck the populace speechless.

 

It can be in parts very stupid, but it is supposed to be. And in today’s world, it’s almost essential to listen to music that makes you smile and invigorates rather than depresses. Today we will learn some Blink 182 Ukulele TABs.

This video is part of a project I’m working on. I’m learning to play my favourite albums on a ukulele. If you enjoyed it why not check out some other classic albums that I arranged like Green Day – American IdiotThe Clash – London Calling and Jimmy Eat World – Bleed American.

Blink 182 Ukulele Tabs

Not sure how to read these? Check out my free course and you will be learning these ukulele tabs in no time.

Dumpweed

A|-----------------------|-----------------------|--------------------|--------------------|-
E|-4----4-4-5-4--------2-|-4----4-4-5-4--------2-|-0----4-4-5-4-----2-|-0----4-4-5-4-7---2-|-
C|-4---------------------|-4---------------------|-1------------------|-1------------------|-
G|-4---------------4-2---|-4---------------4-2---|-2------------4-2---|-2--------------4---|-

A|-------------------------------------------------
E|-4-----4-----2-----2-----4-----4-----5-----5-----
C|---4-----4-----4-----4-----4-----4-----4-----4---
G|-----4-----4-----4-----4-----4-----4-----4-----4-


Adams Song

A|---7-----7-----7-----7------7------7-----7------7--- 
E|-----8-----8-----8-----8------8------8-----8------8-
C|-9-----9-----7-----7--------------------------------
G|-------------------------10-----10-----7-----10-----

Mutt

A|-----7------|------------|---4-----4-----4-----4-----4-----4-----4-----
E|-5-5-----x8-|-----5---x8-|-5-----5-----5-----5-----5-----5-----5-----5-
C|------------|-2-2--------|-----4-----4-----4-----4-----4-----4-----4---
G|------------|------------|---------------------------------------------

MORE SONGS FROM THIS ALBUM?

Easy-to-print PDFs tabs for over 150 albums.

Easy-to-print PDFs tabs for over 150 albums.