I Miss You, Stockholm Syndrome, Down

I Miss You, Stockholm Syndrome, Down

This is another highly requested album and I’m very happy that I finally got round to it. I don’t think blink get enough credit for their songwriting abilities. I often find when I strip down the songs and arrange them for the ukulele, what’s left is some fantastic guitar and bass work. Not to mention Travis Barker’s phenomenal drum playing.


Today we are learning to play I Miss You, Stockholm Syndrome and Down. TheseBlink-182 ukulele tabs are taken from this arrangement from my YouTube channel.

This is not the first time i have arranged Blink-182 on the ukulele. I also did Enema Of The State and Take Off Your Pants And Jacket.

Blink 182 Ukulele Tabs

Not sure how to read these? Check out my free course and you will be learning these ukulele tabs in no time.

I Miss You

A |------------------------------------------------|----9------9---11|---9-----9---|
E |------7/11--------7/11--------7/11--------7/11--|-----------------|-------------|
C |------------------------------------------------|--11-----10------|-8-----10----|
G |-4-4--4/8----3-3--4/8----1-1--4/8----3-3--4/8---|-----------------|-------------|

A |-----------------------------------------------------| E |-2-----2-----2-----2----2----------------------------| C |---3-----3-----3-----3----3--3-4---6-4-3-------------| G |-----------------------------------------4-----3-4-4-|

Stockholm Syndrome

A |----------------2----------------2-----------------2--0-------|
E |-7-7-7--3--3--------------3--3-------------3--3-------0---3---|
C |-4-4-4--------2----0-0-0--------2---7-7-7--------2----0---2---|
G |-------------------0-0-0------------4-4-4-------------2---0---|

Down

A |-2-1-2-2-----2-1-2-2-----2-1-2-2-----2-1-2-2-----|
E |-------------------------------------------------|
C |-------------4-----------------------4-----------|
G |-4-----------------------1-----------------------|

A |-4-4-6-6-----4-4-6-6-----4-4-6-6-----4-4-6-6-----|
E |-7-----------------------4-----------------------|
C |-------------4-----------------------4-----------|
G |-------------------------------------------------|

MORE SONGS FROM THIS ALBUM?

Easy-to-print PDFs tabs for over 150 albums.

Easy-to-print PDFs tabs for over 150 albums.