Legend

Is This Love, Get Up Stand Up, Shot The Sheriff

The title of this album says it all. It’s one of those handfuls of albums that I see in just about every house that I visit. Although it’s a Greatest hits and not strictly a studio album, It’s such an amazing body of work that I consider it to be one of the greatest of all time. Music doesn’t get more honest, simple and beautiful than this.

This video is part of a project I’m working on. I’m learning to play my favourite albums on a ukulele. If you enjoyed it why not check out some other classic albums that I arranged. Like Jimi Hendrix or Micheal Jackson

Bob Marley Ukulele Tabs

Is This Love?

A|-----------------------|-----0----4---5-4---5-4---|-
E|-----2----5----2-----2-|---2--------5-----5-----5-|-
C|-1-4-------------1-4---|-2------------------------|-
G|-----------------------|--------------------------|-

A|-----------------------|-----0--------------------|- E|-----2----5----2-----2-|---2------5-5-5-5-5-5-5-5-|- C|-1-4-------------1-4---|-2--------6-6-6-6-4-4-4-4-|- G|-----------------------|--------------------------|-

A|-0-5---5-|-0-5-4h7-4h7----|-
E|-2-2---2-|-2-2-5---4------|-
C|-1-2-1-2-|-1-2-6---4------|-
G|-2-2-2-2-|-2-2------------|-


Get Up, Stand Up

A|----------5----|----------6--------|
E|--6/8-----5/6--|--6/8-----6--6--8--|
C|--5-7----------|--5-7--------5--7--|
G|---------------|-------------------|

A|--1--------0--|--1-----------0-----| E|--3--------3--|--3-----------3-----| C|--3--------3--|--3-----------3-----| G|--------------|--------------------|

Shot The Sheriff

A|-----2-----1/2-----5--------5--------5--|-----2--0--0-----5--------5--------5--|--
E|-----3-----2-3--------3--------3--------|-----3--2--0--------3--------3--------|--
C|--2--2--2--1-2--2--------2--------2-----|--2-----------2--------2--------2-----|--
G|----------------------------------------|--------------------------------------|--

A|-----5--------5--------5--------5--------5-----2-----5-----3-----2----- E|--------2--------2--------2--------2--------2--3-----7-----5-----3----- C|----------------------------------------------------------------------- G|--2--------2--------2--------2--------2--------------------------------

More songs from this album?

Support the site by joining Learn The Licks and getting easy to print PDFs of 150+ albums

login

Badge Unlocked

Welcome To The Jungle

Complete your first lesson

Badge Unlocked

Start Me Up

Complete The Basics

The Basics

In this section, we will cover everything you need to know about starting to play the ukulele.