Flume, Blindsided, For Emma

Flume, Blindsided, For Emma

I’m scared to listen to this album too much as I don’t ever want its brilliance to dim. Recorded during an isolated winter in his dad’s hunting cabin, he had nothing but his thoughts and some recording equipment. Bon Iver created a sparse beautiful masterpiece and i love it!

This video is part of a project I’m working on. I’m learning to play my favourite albums on a ukulele. If you enjoyed it why not check out some other classic albums that I arranged. Like Damien Rice or Ben Howard

Bon Iver Ukulele Tabs

Not sure how to read these? Check out my free course and you will be learning these ukulele tabs in no time.

flume

Intro Chords

A|-----3-----2-----0-----2-----| E|-----0-----3-----0-----3-----| C|-----0-----4-----0-----4-----| G|-----0-----------2-----------|

A|-----3-----2-----2-----2--------|-----0-----0--------|
E|-----0-----3-----3-----3--------|-----1-----0--------| C|-----0-----4-----2-----2--------|-----0-----0--------| G|-----0--------------------------|-----2-----2--------|
Vocal Line

A|-3-3-3-3-3-3-3-2----2-----------------2--------------2----|-12-12----10----7----|
E|----------------------3-------------3---3----------3------|-13-13----10----8----|
C|------------------------4----2-4-------------4-2-4--------|---------------------|
G|----------------------------------------------------------|---------------------|

blindsided

Chords

A|----1-------1-------1-------|----1----1----1----6----|----1------- E|----1-------3-------1-------|----1----1----3----3----|----1------- C|----2-------2-------2-------|----3----0----2----3----|----2------- G|----3-------0-------3-------|----3----2----0----3----|----3-------
A|-3----5----|-5-3---3------5-3---3------5-3---3-------- E|-----------|-----6---6--------6---6--------6---3/6---- C|-----------|------------------------------------------ G|-----------|------------------------------------------

Melody Line

A|-------------13-------------------------------------|----------------------------|-------- E|-------------------10-10-13-10-10----10-10-10-13-15-|-15-13-11-10----------------|-------- A|-10-10-12-10----------------------------------------|-------------12-10----10-10-|-0----2- G|----------------------------------------------------|----------------------------|--------

for emma

A|-3-2-0-3-|-------------------------------------------
E|-0-4-1-0-|------------------------------8-7-5-0-3----
A|-0-3-0-0-|-7----7/9-4----7/9-4-0-2-7-----------------
G|-0-0-2-0-|-------------------------------------------

MORE SONGS FROM THIS ALBUM?

Easy-to-print PDFs tabs for over 150 albums.

Easy-to-print PDFs tabs for over 150 albums.