Ukulele Utopia

A Virtual Learning Experience

The Balcony

Homesick, Cocoon, Tyrants

The Balcony is a cracking debut album, its catchy tune and catchy tune. It genuinely feels like none of the songs are filler tracks. This album was mightly suggested by you lot and I’m super glad I got round to doing it. Keep them ukulele suggestions coming!

This video is part of a project I’m working on. I’m learning to play my favorite albums on a ukulele. If you enjoyed it why not check out some other classic albums that I arranged. Like Two Door Cinema Club or Hippo Campus.

Catfish And The Bottlemen Ukulele Tabs

Not sure how to read these? Check out this guide and you will be learning these ukulele tabs in no time.

Homesick

A|-----------------------------------------------------------------------|- 
E|---9---8---6---4------9---8---6------9---8---6---4----------------4----|-
C|-8---8---6---5------8---8---6------8---8---6---5---5------5---3--------|-
G|---------------------------------------------------6----6---5---3------|-


Cocoon

Play the first chord 16 times, the next section is following Vans vocal lines.

A|-6-------|---------8------------8-5------------------5h8p5----------5------- E|-3-------|-6-6-8-6------6-6-8-6-----8-6------6-6-8-6-------6-8----6---8-6--- C|-3----16-|------------------------------7---------------------------------7- G|-3-------|------------------------------------------------------------------
A|---5------8------6------5---- E|-3------6------6------6------ C|----------------------------- G|-----------------------------

Tyrants

A|---6----------6------6-6-8-6--------6---|-6----------------------|-
E|-8---8----8-8---8------------8----8---8-|-8----------------------|-
C|-5--------5-5---------------------5-----|-5----------------------|-
G|-5--------5-5---------------------5-----|-5----5-5-5-5-5-5-5-5-5-|-

A|-------------------------6------------6--------------6----------- E|-8-6-8----6-8-6-6-8/6------8-6-8-6------8-6--------8---8-6------- C|--------------------------------------------8/5------------8-7-5- G|-----------------------------------------------------------------
A|-------------------6---6-6---6------------|-2/6----6-8-6------------------------ E|-8-6-8----8-6--------8-----8---8-6--------|--------------8---------------------- C|--------------5--------------------8/5----|-------------------5-5----5-3-5---x2- G|------------------------------------------|-------------------------------------

More songs from this album?

Support the site by joining Learn The Licks and getting easy to print PDFs of 150+ albums

login

Badge Unlocked

Welcome To The Jungle

Complete your first lesson

Badge Unlocked

Start Me Up

Complete The Basics

The Basics

In this section, we will cover everything you need to know about starting to play the ukulele.