Ukulele Utopia

A Virtual Learning Experience

A Rush Of Blood To The Head

In My Place, God Put A Smile Upon Your Face, Daylight

Consistent, cohesive, and with just enough variety to keep listeners engaged throughout its runtime, Coldplay’s second album A Rush Of Blood To The Head is nothing short of a masterpiece. Iv never really understood why they get so much stick. For me they have consistently put out great music, pushed themselves each album, gone into unknown territories and come out heroes.

 

This certainly won’t be the last Coldplay album I arrange for the ukulele.

This video is part of a project I’m working on. I’m learning to play my favourite albums on a ukulele. If you enjoyed it why not check out some other classic albums that I arranged like Kings Of Leon, Muse and Lorde.

Coldplay Ukulele Tabs

Not sure how to read these? Check out this guide and you will be learning these ukulele tabs in no time.

In My Place

A|-7---7-----4---4-7---7-----4---4-|-7---7-----4---4-7---7-------4---4------
E|---------7---7-----------7---7---|---------7---7---------7/9-7---7---5----
C|---4---4-----------4---4---------|---4---4-----------4--------------------
G|---------------------------------|----------------------------------------

A|-2-4-4----2-4-4----4-7----5-5-4-4----2-4-4--------|- E|----------------------------------------------5-4-|- C|--------------------------------------------------|- G|--------------------------------------------------|-
A|-0---0---0---0---4---4---7---7--- E|-0---0---2---2---4---4---4---4--- C|-1-1-1-1-1-1-1-1-4-4-4-4-4-4-4-4- G|---2---2---2---2---6---6---4---4-

God Put A Smile Upon Your Face

A|-4--------------------------|-
E|---7-4-7----7-4-------------|-
C|----------------4-7----6----|-
G|----------------------------|-

A|---4---4------4---4------4---4------4---4- E|---1---1------4---4------3---3------2---2- C|-1---1------4---4------3---3------2---2--- G|------------------------------------------

Daylight

A|---------------------------------------|----|---9------9---9-----9---9-9---9-|-
E|-4/6-6-6-7-7-7-9-9-9-12-12-12-12-12-12-|----|---9------9---9-----9---9-9---9-|-
C|---------------------------------------|----|-6---6------6-----6---6-----6---|-
G|---------------------------------------|----|----------------6---------------|-

More songs from this album?

Support the site by joining Learn The Licks and getting easy to print PDFs of 150+ albums

login

Badge Unlocked

Welcome To The Jungle

Complete your first lesson

Badge Unlocked

Start Me Up

Complete The Basics

The Basics

In this section, we will cover everything you need to know about starting to play the ukulele.