Ukulele Utopia

A Virtual Learning Experience

Discovery

Something About Us, High Life, Harder Better Faster Stronger

Imagine if Daft Punks astonishing 2001 album “Discovery” was played and arranged on a ukulele? That’s something I asked myself last week when I sat down and started to listen to it last week. 

 

Something else I asked myself, how on earth have I not played Daft Punk on my ukulele before? The arrangements are just beautiful, so playful.

Daft Punk Ukulele Tabs

Not sure how to read these? Check out this guide and you will be learning these ukulele tabs in no time.

Something About Us

A |-0--0--0--2--|-------------------------------------------------| 
E |-1--0--1--1--|---1----1-------1----1/3----1-3-3-1--------1---1-|
C |-2--2--2--2--|-2---2------0-2---2-------2---2-2------0-2---2---|
G |-3--2--2--0--|----------2--------------------------2-----------|


A |--5-7-8---7-8--10-----8--10-12--12--10-10--8-8-|
E |----------8-10-12-----10-12-13-----------------|
C |-----------------------------------------------|
G |-----------------------------------------------|

High Life

A |---------6---6-------1-----1-----------6---6---------1---
E |--4-1-8----8-----4-1-1-1---------4-1-8---8-------4-1-1---
C |---------------------2---2---------------------------2---
G |--5-1-8----------5-1-3-----------5-1-8-----------5-1-3---

Harder Better Faster Stronger

A |--2-2-2-0------6-4-6-4-6-4-6-4-6-4--2-2-2-0-------6-4-6-4-6-4-6-4-----------| 
E |--2-2-2-0---------------------------2-2-2-0---------------------------------|
C |--3-3-3-1--x4-----------------------3-3-3-1---4-------------------4-6---4---|
G |--4-4-4-2---------------------------4-4-4-2---------------------------6-----|


A |-0--2--4--9----9/----9/----|
E |-2--4--5--9----9/----9/----|
C |---------------------------|
G |---------------------------|

More songs from this album?

Support the site by joining Learn The Licks and getting easy to print PDFs of 150+ albums

login

Badge Unlocked

Welcome To The Jungle

Complete your first lesson

Badge Unlocked

Start Me Up

Complete The Basics

The Basics

In this section, we will cover everything you need to know about starting to play the ukulele.