Brazil, I Am Everyone Else, Why Do You Feel So Down?

Brazil, I Am Everyone Else, Why Do You Feel So Down?

There’s much more to this album than bouncy upbeat pop songs. Its full of silly lyrics but also had complex songs and the worlds current political climate. Very much looking forward too seeing this fellas musical progression.

Declan Mckenna Ukulele Tabs

Not sure how to read these? Check out my free course and you will be learning these ukulele tabs in no time.

Brazil

 A |-----------------------------|-4-2-0-7-|
 E |---4-----4-------5-----------|-4-2-0-4-|
 C |-4---4-3---3-----------4---4-|-4-3-1-4-|
 G |-------------4/6---6/4---4---|-6-4-2-4-|

A |----------------------------|--------------7-7--9-11---|------------7-7--9-11-9-7- E |-9-9---7-7---5-5---2----x2--|-9-9---11-11------------7-|-9-9--11-11--------------- C |---------------------4------|--------------------------|-------------------------- G |----------------------------|--------------------------|--------------------------

I Am Everyone Else

A |-------10----------------------------------------- 
E |-10-12----12---12-10----10----7-7-8-7-5---5-------
C |---------------------11-----------------7---6-7---
G |--------------------------------------------------


Why Do You Feel So Down?

A |-7-5---7---7---7---9-7----9----9----9-----10-9-7-10-9-7----9-7------
E |-----8---8---8---------10---10---10---10----------------10-----10-8-
C |--------------------------------------------------------------------
G |--------------------------------------------------------------------

MORE SONGS FROM THIS ALBUM?

Easy-to-print PDFs tabs for over 150 albums.

Easy-to-print PDFs tabs for over 150 albums.