Ukulele Utopia

A Virtual Learning Experience

Infinity On High

This Ain't a Scene, The Carpel Tunnel Of Love, Ive Got All This Ringing

Fall Out Boy Infinity On High full album arranged on 4 strings. This is Fall Out Boy Ukulele Style!

 

No doubt about it, Fall Out Boy were the biggest band on the planet in 2007. They already had a huge fan base with the mega singles Sugar and Dance Dance. However, with the release of Infinity On High, it truly catapulted them into being a MASSIVE BAND!

This video is part of a project I’m working on. I’m learning to play my favourite albums on a ukulele. If you enjoyed it why not check out some other classic albums that I arranged like Blink 182Green Day or Twenty One Pilots.

Fall Out Boy Ukulele Tabs

Not sure how to read these? Check out this guide and you will be learning these ukulele tabs in no time.

This Ain't a Scene, Its An Arms Race

A|-3-5-7-5-3-5-7-------|-2-3-5-3-2-3-5----2----|-
E|-5-7-8-7-5-7-8---X2--|-4-5-7-5-4-5-7----4----|-
C|---------------------|------------------4----|-
G|---------------------|-----------------------|-

A|-------------------------------------------------------- E|-5---5-5-5----5-5-5-5-5-5-5-5-3-1-3----5-5-5-4-4-------- C|---4------------------------------------------------4/2- G|--------------------------------------------------------

The Carpel Tunnel Of Love

A|----------------------------------|-
E|----------------------------------|-
C|----------------------------------|-
G|-7-7----7-7----2----7----7-7----2-|-

A|----------------------------------------------------------- E|---8-8-5-5------8-8-6-6------8-8-8-8-6-5------8-8-10-6-5-6- C|-5------------5------------5----------------5-------------- G|-----------------------------------------------------------

Ive Got All This Ringing

A|-2------|-----2---------|----------------------------------1----2-1-2----2-1-2----2-1-2-
E|-4---X8-|---4------4----|-4-4-2-4----4-4-2-4----4-2-4----4-2----4-2-4----4-2-4----4-2-4-
C|-3------|-3--------3----|---------------------------------------------------------------
G|--------|---------------|---------------------------------------------------------------

A|-4----6----7----9-----11----15-
E|-6----7----9----11----12----12-
C|-------------------------------
G|-------------------------------


More songs from this album?

Support the site by joining Learn The Licks and getting easy to print PDFs of 150+ albums

login

Badge Unlocked

Welcome To The Jungle

Complete your first lesson

Badge Unlocked

Start Me Up

Complete The Basics

The Basics

In this section, we will cover everything you need to know about starting to play the ukulele.