Ernie, Cays Crays

Ernie, Cays Crays

This week its time for the Dub warriors Fat Freddys Drop – Based On A True Story. My favourite New Zeland artists are getting that ukulele flavour. Did you know? The bands name comes from their favourite strain of LSD.

This video is part of a project I’m working on. I’m learning to play my favorite albums on a ukulele. If you enjoyed it why not check out some other classic albums that I arranged. Like Bob Marley or Gorillaz.

Fat Freddy's Drop Ukulele Tabs

Not sure how to read these? Check out my free course and you will be learning these ukulele tabs in no time.

Ernie

A|--8/10-----8--6--5-----5p3h5--6-----5--3--------
E|------------------------------------------6--3--
C|------------------------------------------------
G|------------------------------------------------

A|--------3-----------------1-----------------5-------------------3----------- E|-----------3-----3-----3-----3-----3-----3-----3-----3-------------4-----4-- C|-----3--------3-----2-----------2-----5-----------5----------3--------3----- G|--5-----------------------------------------------------3h5-----------------

Cays Crays

A|-10------------------7----------------------------------------------------
E|-------12----10-8-10---8-7-------------------------------------10-8-10-12-
C|---------------------------9-7--------7-9------7------7-9/7---------------
G|-------------------------------9----9--------9------9---------------------

A|---5------7-------12-------12-|---5------7------7---- E|---0------8-------12-------12-|---0------8------5---- C|---4------9-------12-------12-|---4------9------7---- G|-5------7------12----------12-|-5------7------5------

MORE SONGS FROM THIS ALBUM?

Easy-to-print PDFs tabs for over 150 albums.

Easy-to-print PDFs tabs for over 150 albums.

Badge Unlocked

Welcome To The Jungle

Complete your first lesson

Badge Unlocked

Start Me Up

Complete The Basics

The Basics

In this section, we will cover everything you need to know about starting to play the ukulele.