Blue blood, What remains, Alabaster

Blue blood, What remains, Alabaster

It’s fair to say at least one Foals album should have been in my top 50 project. Quite simply, I love this band. They are everything you could want in a bunch of musicians. Technicality, riffs for days, gorgeous harmonies and they are immense live. I first discovered them on itunes weekly free music thing on a Tuesday. I heard the track Balloons and was instantly hooked and have been ever since.

This video is part of a project I’m working on. I’m learning to play my favourite albums on a ukulele. If you enjoyed it why not check out some other classic albums that I arranged like The Strokes, Kings Of Leon or The Libertines

Foals Ukulele Tabs

Not sure how to read these? Check out my free course and you will be learning these ukulele tabs in no time.

Blue Blood

Chords

A|-4-4-4-2-| |---9---9---9---12-|---9---9---9---7-| |------------------------------------
E|-5-5-5-5-|X8|------------------|-----------------| X2 |---9---------9----------12------9---
C|---------| |-9---9---9---9----|-9---9---9---9---| |-9---11----6---6----9-8-------6---6-
G|---------| |------------------|-----------------| |------------------------------------

Play these 4 times each
Vocal Line

A|-4/7-7----4-4----2-0-2----0-0-0-2-4/2-|-|-4/7-4\2-4p2p0----0-0-0-2-4-|-4-4/7-7----4-4/7-4-2-0--
E|--------------------------------------|-|----------------------------|-------------------------
C|--------------------------------------|-|----------------------------|-------------------------
G|--------------------------------------|-|----------------------------|-------------------------

A|-0-0-0-2-4----2p0------|-0-0-0-2-4----2p0------|- E|------------------2----|------------------2----|- C|-----------------------|-----------------------|- G|-----------------------|-----------------------|-
Main Riff

A|----------------12-12-12-9---------------------------
E|-14-14-14-14-14------------14-14-14-14-14-12-12-12-9-
C|-----------------------------------------------------
G|-----------------------------------------------------

What Remains

Riff

A|---------------------|----|-7-10-12------|-7-10-12------|-7-10-12----15-|-7-10-12----15-
E|---10--------10-12---|----|---------10-8-|---------10-8-|---------10----|---------10----
C|-9----9----9-------9-|----|--------------|--------------|---------------|---------------
G|---------------------|----|--------------|--------------|---------------|---------------
 


Backing Part

A|---------------------|----|-------10------|-
E|----8----8----8----8-|----|----10----10---|-
C|---------------------|----|-12----------9-|-
G|-10---10---10---10---|----|---------------|-

Alabaster

Riff 1

A|------------------------------- E|-8-8----10-10----8-8----5-5---- C|-9-9----7--7-----5-5----5-5---- G|-------------------------------

Riff 2

A|---------------------------------------------------------------------- E|-12-12-13-12---------------------------------------------------------- C|-------------12-12-12-11-11-11-14-14-12-9-9-9-12-12-12-9-9-12-11-9-12- G|---------------------------------------------------------------------

MORE SONGS FROM THIS ALBUM?

Easy-to-print PDFs tabs for over 150 albums.

Easy-to-print PDFs tabs for over 150 albums.