Thinking About You, Lost, Sweet Life

Thinking About You, Lost, Sweet Life

What gets me most about this album is the depth and personal way in which frank is able to express his emotions. I first heard about him during his time with Odd Future, he was the guy with the soulful flow and that killer line “bumping oldies on my cellular phone”. Like many members of OFWGKTA, he went onto release some poignant music. This album absolutely deserves its title as one of the best album of 2012.

If you enjoyed this video, you might like some of the other medleys i put together like Kendrick Lamars DAMN! or this mash up of my favourite hip hop songs from 2018.

Frank Ocean Ukulele Tabs

Not sure how to read these? Check out my free course and you will be learning these ukulele tabs in no time.

Thinking About You

A |---------7-------------3-------------2-----0--- 
E |-----5-----5-------1-----1-------0-----0---0---
C |---5---5-----5---2---2-----2---2---2-----2-0---
G |-5-------------2-------------0-------------2--- 


A |---3-3-5--5/7--3---------------5-7-5-3-----5-3---------------
E |-3---------------3---3-3/8---8---------5-3-------8-7-5---5---
C |-------------------------------------------------------7---4-
G |-------------------------------------------------------------

A |---3-3-5--7/10--5-3---7-5-3-----5-7-5-3-----5-3---------------
E |-3----------------------------8---------5-3-------8-7-5---5---
C |--------------------------------------------------------7---4-
G |--------------------------------------------------------------


Lost

A |-------8-8/10----8-10----8-10-12-10-8---|--1----0----5----0----|
E |-10--10--------10------10---------------|--3----1----3----1----|
C |----------------------------------------|--2----2----3----2----|
G |----------------------------------------|--0----3----3----3----|

A |-5---------------------5-----------------------------------|
E |-6---8--8-10-8-6---------8-6-5-6---8-8-108-6---------6-6-5-|
C |-5---------------7-5-------------------------7-5-----------|
G |-----------------------------------------------------------|


A |----------------------------------------------------------------
E |--6-5-1---6-5-3-1---6-5-3/1---5-6-8-6---6-8-6---6-5-3-1---6-5/1-
C |----------------------------------------------------------------
G |----------------------------------------------------------------

Sweet Life

A |-8-6------6-8-6---8-6-----8-9-11-9-8-11-9-8----9p7--7-6-4-6-4---6p4--6-6-4-
E |------6-9---------------9--------------------------------------------------
C |---------------------------------------------------------------------------
G |---------------------------------------------------------------------------

MORE SONGS FROM THIS ALBUM?

Easy-to-print PDFs tabs for over 150 albums.

Easy-to-print PDFs tabs for over 150 albums.