Superfast Jellyfish, On Melancholy Hill, To Binge

Superfast Jellyfish, On Melancholy Hill, To Binge

Plastic Beach grasps you from the first instrumentation and takes you into a world of full flourishing colour and experimental rock at its finest! Demon Days was just the start. Gorillaz always seem to get it right.

This video is part of a project I’m working on. I’m learning to play my favourite albums on a ukulele. If you enjoyed it why not check out some other classic albums that I arranged like Demon Days or The Now Now.

Gorillaz Ukulele Tabs

Not sure how to read these? Check out my free course and you will be learning these ukulele tabs in no time.

Superfast Jellyfish

A|-2-3-5----2-3-5----2-2-3-5----2-3----3-5----7-5-3- 
E|-3-5-7----3-5-7----3-3-5-7----3-5----5-7----8-7-5-
C|--------------------------------------------------
G|--------------------------------------------------


On Melancholy Hill

A|-5-0-2-2-0-2-0-|-
E|-2-0-2-3-0-3-0-|-
C|-2-1-2-2-1-2-1-|-
G|-2-2-4-0-2-0-2-|-

A|----12-------12----12---12------12---12----12-------12----12-------12------12---12------12------12----12---- E|-10-------10----10----9-------9----9----10-------10----10----10-10----10-9----9----9-10----10-9----10----10- C|------------------------------------------------------------------------------------------------------------ G|------------------------------------------------------------------------------------------------------------

To Binge

A|------------------------------------------------9---9---5---5---5---3-1--------------- 
E|-2----2-7----2-5----2------7-8-9----7-9----9-10---9---7---5---6---5-----2-3------9-10-
C|-2----2-7----2-6----2-4----7-8-9----7-9----9--------------------------------2----9-10-
G|----------------------4---------------------------------------------------------------


MORE SONGS FROM THIS ALBUM?

Easy-to-print PDFs tabs for over 150 albums.

Easy-to-print PDFs tabs for over 150 albums.