The Now Now

Humility, Hollywood, Souk Eye

It’s that time again, the worlds greatest cartoon band Gorillaz ukulele style. Not that they are just a cartoon band, this lot is one of the greatest of all time! Today we are going to learn the Gorillaz ukulele TABs for Humility, Hollywood and One Percent.

 

Even though the album only came out on Friday. I have had plenty of opportunities to learn to play some of the Gorillaz songs of The Now Now. The amount of fan-uploaded tour footage on YouTube has been a godsend!

This video is part of a project I’m working on. I’m learning to play my favorite albums on a ukulele. If you enjoyed it why not check out some other classic albums that I arranged like Demon DaysSiamese Dream and American Idiot.

Gorillaz Ukulele Tabs

Not sure how to read these? Check out this guide and you will be learning these ukulele tabs in no time.

Humility

A|------2-2-0---------2-2-0----10-10-0-0-2----10---0-0-2-
E|-15/2-3-3-0----15/2-3-3-0----10-10-1-1-0----10/2-1-1-0-
C|------2-2-0---------2-2-0----------0-0-2---------0-0-2-
G|------0-0-2---------0-0-2----------0-0-0---------0-0-0-


A|-------2----------------------------------
E|-3-3-5---3-3---3-5------------------------
C|-------------4--------2-2-2-0-2-4-2-0-----
G|--------------------------------------2-0-


Hollywood

A|---------------------------------
E|-3-8-8-3-7-7-3-5-5-0-3-0-3-0-3-0-
C|---------------------------------
G|---------------------------------

Souk Eye

A|------------------------------------------------------------------
E|---5-----5----------5-----5----------3-----3----------3-----3-----
C|-----5-----5----------5-----5----------4-----4----------2-----2---
G|-5-----5-----5----4-----4-----4----3-----3-----3----3-----3-----3-

A|-----7-5----3h5p3-----------------7-5----3-5-7-8-10/12- E|-5----------------5-----------5------------------------ C|---5-------------------5-2------5---------------------- G|-------------------------------------------------------

More songs from this album?

Support the site by joining Learn The Licks and getting easy to print PDFs of 150+ albums

login

Badge Unlocked

Welcome To The Jungle

Complete your first lesson

Badge Unlocked

Start Me Up

Complete The Basics

The Basics

In this section, we will cover everything you need to know about starting to play the ukulele.