Ukulele Utopia

A Virtual Learning Experience

Dookie

Burnout, Chump, Longview

One of my favourite punk albums of all time, this Green Day Ukulele style! The full Dookie album arranged for the ukulele. As influential as a pop/punk-rock album could be.

This video is part of a project I’m working on. I’m learning to play my favourite albums on a ukulele. If you enjoyed it why not check out some other classic albums that I arranged like American Idiot, Pearl Jam – 10 and The Clash – London Calling.

Green Day Ukulele Tabs

Not sure how to read these? Check out this guide and you will be learning these ukulele tabs in no time.

Burnout

A|-4/6-4-4---4-6-4-4------------------------------------------- 
E|---------6------------2-6-6-6-6-7-6-4-4-6----2-6-7-6-4-2-4-4-
C|-------------------------------------------------------------
G|-------------------------------------------------------------

Chump

A|-5-3-------6-6-5-3------5-3-------------3---
E|-----6-3-6---------6--------6---3-6-6-6---6-
C|------------------------------5-------------
G|--------------------------------------------

Longview

A|---------------------------6-4-3-4-
E|---6-4-3---4-3-------6-4-3---------
C|-3-------1-----1-5-3---------------
G|-----------------------------------

A|---1-3-4-3-1---1------1-1-1--------1-3-4-3-1---1----- E|-------------4--------------4----------------4---4-3- C|-3------------------3------------3------------------- G|-----------------------------------------------------
A|-6-4-3-4-3------------1-3-4-3-1---1----1-3-4-3-1---1--------1-1----1---|- E|-----------6-4-6----------------4----------------4-------------------4-|- C|--------------------3-----------------------------------3-3------------|- G|-----------------------------------------------------------------------|-
A|-5-5-6-6-8-6-5-5----5-3-5-3---3------------5-5-6-6-8-6-5-5-----5-3--- E|----------------------------6---6-3-3-6--------------------6-------6- C|-------------------------------------------------------------5------- G|---------------------------------------------------------------------

More songs from this album?

Support the site by joining Learn The Licks and getting easy to print PDFs of 150+ albums

login

Badge Unlocked

Welcome To The Jungle

Complete your first lesson

Badge Unlocked

Start Me Up

Complete The Basics

The Basics

In this section, we will cover everything you need to know about starting to play the ukulele.