Hitchin A Ride, Worry Rock, Time Of Your Life

Hitchin A Ride, Worry Rock, Time Of Your Life

I absolutely love playing Green Day on the ukulele. Riffs and harmonies in abundance!

This video is part of a project I’m working on. I’m learning to play my favorite albums on a ukulele. If you enjoyed it why not check out some other classic albums that I arranged like Dookie or American Idiot.

Green Day Ukulele Tabs

Not sure how to read these? Check out my free course and you will be learning these ukulele tabs in no time.

Hitchin A Ride

A|-----6-7-9----10-9-7-6h7-6h7-6h7------|---------------------|
E|-7-8-----------------------------7----|---------------------|
C|--------------------------------------|-6-6-4-4-3-3-2-2-2-2-|
G|--------------------------------------|-4-4-2-2-1-1-0-0-0-0-|

Worry Rock

A|-------------------6-4-----4----------------4------------------------------
E|------4-5-7----4-7-----7-5---7-5-7---4----5---7-5-7-4--------5-5-5-5-4-4---
C|-4---------------------------------6------------------4----4-------------6-
G|---------------------------------------------------------------------------

Time Of Your Life

A|--------------------|-----5-----------5-----------3-----------5-------|-
E|-----3----------3---|-------3---3-------3---3-------3---3-------5---5-|-
C|-------2----------2-|---------2-----------2-----------4-----------6---|-
G|-0-0--------0-0-----|-0-0---------0-0---------5-5---------7-7---------|-

A|-------------------------------------7-7-7-5----5-5-7-5-7-5-5----7-7-7-5-5-5-5-7-5-3-5-5- E|-7-7-8-10-8-7----7-8-7-5-3-3---x2-------------------------------------------------------- C|----------------------------------------------------------------------------------------- G|-----------------------------------------------------------------------------------------
A|--------------------------------------------------------
E|-3-3---3-5-7-5-3----3-3---3-5-7----3-3---3-5-5----2-3-3-
C|-----4------------------4--------------4----------------
G|--------------------------------------------------------


MORE SONGS FROM THIS ALBUM?

Easy-to-print PDFs tabs for over 150 albums.

Easy-to-print PDFs tabs for over 150 albums.