Appetite for Destruction

Welcome To The Jungle, Mr Brownstone, Sweet Child O Mine

I really don’t know what I can say about Guns N Roses debut album that hasn’t been said a million times before. They erupted onto the music scene with a record that sounded so real, not polished, just pure, loud, heavy rock and roll. As a young guitarist, I dreamed of playing like Slash, and now here’s my chance!

Check it out, Guns N Roses shared this video on their Twitter, Facebook and Instagram. So cool!

Guns N Roses Ukulele Tabs

Not sure how to read these? Check out this guide and you will be learning these ukulele tabs in no time.

welcome to the jungle

Uke 1

Intro Riff Main heavy riff, play with skank

A|-----------------------------------|-3----|---------------------|-
E|-8-8-8-6-6-6-3-3-3-1-1-1-----------|-3----|---------------------|-
C|-------------------------3----0----|-4----|-10-8-10----8-7-5----|-
G|-----------------------------------|-5----|-10-8-10----8-7-5----|-

Uke 2

play chords over riff build up solo


A|-3----1----0----6-1-|-----------3-6-8-8-8-8-8-8-8p6---|-
E|-0----1----1----3-1-|-------3-6---------------------8-|-
C|-0----2----0----3-2-|-0-3-5---------------------------|-
G|-0----3----2----3-3-|---------------------------------|-

mr brownstone

A|-----------------7-7-------|-5-4-2-0------|-
E|-----4-7-5-----4-------4-5-|---------3----|-
C|-4-7-------4-7-------7-----|--------------|-
G|---------------------------|--------------|-


A|-----------------7-7-------|----------------|-5-0-2------|
E|-----4-7-5-----4-------4-5-|-0-3-5-3-0-0----|-------3----|
C|-4-7-------4-7-------7-----|----------------|------------|
G|---------------------------|----------------|------------|

play this part really fast!

Sweet Child O' Mine

A|---------8---7---|---------8---7---|---3-----8---7---|---3-----8---7---|-
E|---8-------------|---8-------------|-----------------|-----------------|-
C|-0-----5---------|-0-----5---------|-2-----5---------|-2-----5---------|-
G|-----0-----0---0-|-----0-----0---0-|-----0-----0---0-|-----0-----0---0-|-

A|---------8---7---|---------8---7---|---------8---7---|-5---3---2---3---|- E|---8-------------|---8-------------|---8-------------|-----------------|- C|-5-----5---------|-5-----5---------|-0-----5---------|-----------------|- G|-----0-----0---0-|-----0-----0---0-|-----0-----0---0-|---0---0---0---0-|-
Bass Line

A|--------7------7-8-10----12-10-8-7---|--------8------6-5---6-5------|- E|---8---------8---------------------8-|---6---------6-----6-----6----|- C|-7-----------------------------------|-0----------------------------|- G|-------------------------------------|------------------------------|-
A|-----------10-------10-9----10-9----10-9----10-9-------|- E|---1----10-------10------10------10------10------10----|- C|-0-----------------------------------------------------|- G|-------------------------------------------------------|-

More songs from this album?

Support the site by joining Learn The Licks and getting easy to print PDFs of 150+ albums

login

Badge Unlocked

Welcome To The Jungle

Complete your first lesson

Badge Unlocked

Start Me Up

Complete The Basics

The Basics

In this section, we will cover everything you need to know about starting to play the ukulele.