Adore You, Canyon Moon

Adore You, Canyon Moon

I have always had a soft spot for One Direction. Which is odd as It’s my nature to hate anything that is a product of the profit-hungry music industry. But there was something about them 5 lads that made them likeable. Maybe it’s because one of them was from just down the road from me in Doncaster, who knows?!

 

So anyway, when they disbanded i was super eager to hear what they would all do. Harry Styles did NOT disappoint, his debut was sublime and in my opinion, Fine Line is even better. Crammed with potential pop music classics.

 

It’s clear to see that he channelled all his childhood influences like Fleetwood Mac, The Beatles and Norah Jones on this record.

This video is part of a project I’m working on. I’m learning to play my favourite albums on a ukulele. If you enjoyed it why not check out some other classic albums that I arranged. Like Fleetwood Mac or Damien Rice.

Harry Styles Ukulele Tabs

Not sure how to read these? Check out my free course and you will be learning these ukulele tabs in no time.

Adore You

A |-----------------------------------------------------------------------------------
E |------3---11--8-6---6--3-3/1-3-1---6--3-3/1-3-1-------1-3--11---8-6---6--3-3/1-3-1-
C |-3-5----------------------------------------------3-3------------------------------
G |-----------------------------------------------------------------------------------

A |-----------------------------------------
E |---3-3-1-1---1-------3-6-6-4-4-3-1-------
C |-3---------3---3-0-----------------3-3---
G |-----------------------------------------

A |--3-3-3--3-3-5--------3-3-3--3-3-------|
E |--3-3-3--3-3-3--------3/4-4--4/6-------|
C |--3-3-3--3-3-3---x2---3-3-3--3-3---x2--|
G |--3-3-3---------------5-5-5------------|

Canyon Moon

A |---5-5-----------------------------5-5-5-5-|
E |-2-2-2--7-5--3-2---3-3-3-3--5-2----2-2-2-2-|
C |-2-2-2--7-6--4-2---4-4-4-4--6-2----2-2-2-2-|
G |-2---------------------------------2-2-2-2-|

MORE SONGS FROM THIS ALBUM?

Easy-to-print PDFs tabs for over 150 albums.

Easy-to-print PDFs tabs for over 150 albums.