Bambi

Doubt, Bambi, Think It Over

I just love this band. With their soaring melodies, glistening guitar tones and heavenly harmonies. They just hit me on every level a band should. This follow up to Landmark is a win, no doubt about it.

This video is part of a project I’m working on. I’m learning to play my favorite albums on a ukulele. If you enjoyed it why not check out some other classic albums that I arranged. Like Landmark or Bashful Creatures.

Hippo Campus Ukulele Tabs

Not sure how to read these? Check out this guide and you will be learning these ukulele tabs in no time.

Doubt

A |------2-4-------9-4---4-----------2-4----------------- 
E |--5-----------------7---------5-------------9---9-9---
C |----4---------------------------4---------------------
G |2-----------4/6-----------2-------------4/6---6-----6-
 


A |--------4-------9-7---7-----------4-------7------- E |--5---7-----7/9-----9-------5---7-----7/9---9/5--- C |1---1---------------------1---1------------------- G |--------------------------------------------------

Bambi

A|--3--6--10-6--|--3--6--10-8--- 
E|--3--6--8--6--|--3--6--8--7---
C|--3--7--8--7--|--3--7--8--8---
G|--3--6--8--8--|--3--6--8------
 


A |-----6-----------------------------------------------------6-3-6-- E |---6-------------------------------------------------------6-4-6-6 C |-7-------7/5-7/5-3/7---5-7/5-7-5/3-----3/5-7-5-7-5/3-----7-------7 G |-----------------------------------5-----------------5------------
A |-6-----6-6---6-----------6-6---6------------------------------- E |-6-8-6---------8p6---6-8---------8-6---6-8--------------------- C |-7-----------------------------------------5-7---7-5/3---3-5-7- G |---------------------------------------------------------------

Think It Over

A |-0--7-5-7-5-7-5-3---7-5-7-5-3-2--3-2-3-2-3-2-----3-2-3-5-
E |-0----------------------------0--------------3-----------
C |-0----------------------------0--------------------------
G |-2----------------------------0--------------------------

More songs from this album?

Support the site by joining Learn The Licks and getting easy to print PDFs of 150+ albums

login

Badge Unlocked

Welcome To The Jungle

Complete your first lesson

Badge Unlocked

Start Me Up

Complete The Basics

The Basics

In this section, we will cover everything you need to know about starting to play the ukulele.