Bashful Creatures

Suicide Saturday, Bashful Creatures

This is the second time Hippo Campus has been given the ukulele treatment. I gotta say it’s probably not going to be the last either. These guys have got a serious future ahead of them if keep banging out the material they are. Riffs and harmonies in abundance. I love this band!

This video is part of a project I’m working on. I’m learning to play my favourite albums on a ukulele. If you enjoyed it why not check out some other classic albums that I arranged like Nirvana – Nevermind, or Rage Against The Machine – Debut Album.

Hippo Campus Ukulele Tabs

Not sure how to read these? Check out this guide and you will be learning these ukulele tabs in no time.

Suicide Saturday

A|-2----7----2----7----|-
E|-0----5----0----5----|-
C|-0----5----0----5----|-
G|-0----5----0----5----|-

A|------------------------------------------- E|-3-3-5------------------------------------- C|-------4----2-0-2-4-0--------0-----0-----0- G|-------------------------2-0---2-0---2-0---

Bashful Creatures

A|-----2-----------3-----------3-----------5-----3-----2-----------2-----------2--------|--
E|--------3-----------0-----------0-----------------------3-----------3-----------3-----|--
C|-----------2-----------0-----------0--2-----0--------------2-----------2-----------2--|--
G|--0-----------0-----------0-----------------------0-----------0-----------0-----------|--

More songs from this album?

Support the site by joining Learn The Licks and getting easy to print PDFs of 150+ albums

login

Badge Unlocked

Welcome To The Jungle

Complete your first lesson

Badge Unlocked

Start Me Up

Complete The Basics

The Basics

In this section, we will cover everything you need to know about starting to play the ukulele.