Grace

Grace, Last Goodbye, Eternal Life

I first heard of Jeff when i friend from school kept banging on about him. “He is the greatest loss of his generation” he would exclaim. ” I can’t believe you have never heard his music” he would go on and on at me. I shrugged him off because he was borderline annoying me at this point. However during my weekly visit to HMV to get some new albums. I saw Grace there for £3.99 and thought let’s see what all the fuss is about.

 

Later that night I went up to my bedroom and got my headphones out with the long wire. My mate told me you need to fully focus on it. So I wanted to lay down and soak it all in. So i put it in my CD player, pressed play and quickly climbed to the top of my bunk bed. I was already awed by the angelic intro of Mojo Pin but then the first words Jeff spoke to me “I’m lying in my bed”. My eyes shot open, I felt like this was some kind of profound coincidence. Safe to say my attention was fully on this album for the next 50 mins. A true classic.

This video is part of a project I’m working on. I’m learning to play my favourite albums on a ukulele. If you enjoyed it why not check out some other classic albums that I arranged. Like Smashing Pumpkins or Damien Rice.

Jeff Buckley Ukulele Tabs

Not sure how to read these? Check out this guide and you will be learning these ukulele tabs in no time.

Grace

A |-----3-8-----------------3-8--10-8-----------|----5-10------------------5-10--12-10--------| 
E |---4-----6-4-6-4-6-4---4-----------10-8------|--6------8-6-8-6-8-6----6------------12-10---|
C |-5-------------------5------------------10-8-|7---------------------7-------------------12-|
G |---------------------------------------------|---------------------------------------------| 


A |-4-5-5-5---4-5-5-5---4-5--10-12-12-12-12-12--10-7------4-5-5-5---4-5-5-5--2-2-2-2-2 E |-2-2-2-2---2-2-2-2---2-2-------------------------------2-2-2-2---2-2-2-2--3-3-3-3-3 C |-2-2-2-2---2-2-2-2---2-2--------------------------x3---2-2-2-2---2-2-2-2--2-2-2-2-2 G |-2-2-2-2---2-2-2-2---2-2-------------------------------2-2-2-2---2-2-2-2--0-0-0-0-0

Last Goodbye

A |-----------------3---3-----------------5---5-
E |---5---5---5---5---5-----3---3---3-7-7---7---
C |-6---6---6---6---------4---4---4-------------
G |---------------------------------------------

Eternal Life

A |----------------------------------5----
E |-------------------3-3------------2----
C |--4--4--4-4-4-4-4--2-2------------2----
G |--4--4--4-4-4-4-4--0-0--0-0-0-0-0-2----

Video lesson

More songs from this album?

Support the site by joining Learn The Licks and getting easy to print PDFs of 150+ albums

login

Badge Unlocked

Welcome To The Jungle

Complete your first lesson

Badge Unlocked

Start Me Up

Complete The Basics

The Basics

In this section, we will cover everything you need to know about starting to play the ukulele.