Crosstown Traffic, Lot Hot Summer Nights, All Along The Watchtower

Crosstown Traffic, Lot Hot Summer Nights, All Along The Watchtower

Jimi Hendrix has always impressed me with his brilliant and raw guitar work, letting rip with sensational licks that still sends shivers down my spine. So it was never going to be in doubt that doing any Jimi Hendrix album was going to be difficult. Electric Ladyland really pushed me and I hope I did it justice. Happy to present you Jimi Hendrix Ukulele style!

This video is part of a project I’m working on. I’m learning to play my favourite albums on a ukulele. If you enjoyed it why not check out some other classic albums that I arranged like Led ZeppelinQueen or Guns N Roses.

Jimi Hendrix Ukulele Tabs

Not sure how to read these? Check out my free course and you will be learning these ukulele tabs in no time.

Crosstown Traffic

One of the most iconic opening chord sequences in rock history! Listen to my arrangement to figure out the strumming pattern.

A|-2---------5------|------------------------|-2---------5------|-
E|-1---x8----1---x8-|-----6---------------x3-|-1---x8----1---x8-|-
C|-2---------2------|-5h7---5p3---3/5/3------|-2---------2------|-
G|-0----------------|-----------5------------|-0----------------|-

Lot Hot Summer Nights

This riff requires a lot of hammer-ons and pull-offs but once you get them down it sounds sublime.

A|---------6-6----------------4---5-5------------|---------6-6-------------4-------6-3-------------
E|-----3h6---------4h5------3---3-6-6----------5-|-----3h6---------4h5---3---3-6-6-----6-3---------
C|-3h5---------3h5--------3--------------3-5-5---|-3h5---------3h5-----3-------------------6-5-3---
G|-----------------------------------------------|-------------------------------------------------

All Along The Watchtower

Possibly one of Hendrix’s most famous songs but did you know this is actually a cover song? It was written by folk legend Bob Dylan in 1967. Check out his version here.

A|-2-2-4-4-4-4----2-2-4-4-4-4-|-
E|-2-2-4-4-4-4----2-2-5-5-5-5-|-
C|-3-3-4-4-4-4----3-3-4-4-4-4-|- x2
G|-4-4-6-6-6-6----4-4-6-6-6-6-|-

A|-------6-6-6----6p4-----------------------------------------4-
E|-----7--------------7------------------4---4----------5p4-----
C|-6h8------------------8-6-6--------4h6---6------6p4-------4---
G|-------------------------------4h6------------------6---------

MORE SONGS FROM THIS ALBUM?

Easy-to-print PDFs tabs for over 150 albums.

Easy-to-print PDFs tabs for over 150 albums.