The Search For Everything

Still Feel Like Your Man, Rosie, Your Gunna Live Forever In Me

I would definitely consider myself a new fan of John Mayer. I had heard his name mentioned and I was aware he was known for his skills on the guitar. Yet, I had never heard any of music until this album. After somebody in the street told me I looked like him, I thought it’s about time I checked him out. The opening track on the album drew me in and I have been hooked on him since. 

 

Today we are learning the John Mayer ukulele tabs for Still Feel Like Your Man, Rosie and You’re Gonna Live Forever In Me.

This video is part of a project I’m working on. I’m learning to play my favourite albums on a ukulele. If you enjoyed it why not check out some other classic albums that I arranged like Simon & GarfunkelJimi Hendrix or Ben Howard.

John Mayer Ukulele Tabs

Not sure how to read these? Check out this guide and you will be learning these ukulele tabs in no time.

Still Feel Like Your Man

A|---4---4-4----5----------------|
E|---2---2-2----3----------------|
C|---4---4-4----4--------2-4p2---|
G|-2---2--------2----2h4-------4-|

A|----------------------|-----------------------|--------------|---------------------------|
E|----------------------|-----------------------|--------------|---------------------------|
C|-4-4-4-4----2-4-2-4-6-|-6-4----6-4----2---6-6-|-4-4-2-4-2----|-2-4----2-4----6-4-2---2-4-|
G|----------------------|-----------------4-----|--------------|---------------------4-----|

A|-------------5----------------------7----------------5----------------------|
E|-------------3----------------------6----------------3----------7-3---------|
C|-6-6-6-4-7p6-4----6-6-6-4-7-6-4-----6----6-6-6-4-7p6-4----6-6-4-----6-4-2-1-|
G|-------------2------------------7-6-6----------------2----------------------|

Rosie

A|-4--------------------------|-
E|---7-4-7----7-4-------------|-
C|----------------4-7----6----|-
G|----------------------------|-

A|---4---4------4---4------4---4------4---4- E|---1---1------4---4------3---3------2---2- C|-1---1------4---4------3---3------2---2--- G|------------------------------------------

Your Gunna Live Forever In Me

A|---------------------------------------|----|---9------9---9-----9---9-9---9-|-
E|-4/6-6-6-7-7-7-9-9-9-12-12-12-12-12-12-|----|---9------9---9-----9---9-9---9-|-
C|---------------------------------------|----|-6---6------6-----6---6-----6---|-
G|---------------------------------------|----|----------------6---------------|-

More songs from this album?

Support the site by joining Learn The Licks and getting easy to print PDFs of 150+ albums

login

Badge Unlocked

Welcome To The Jungle

Complete your first lesson

Badge Unlocked

Start Me Up

Complete The Basics

The Basics

In this section, we will cover everything you need to know about starting to play the ukulele.