Attention, Slow Dancing In The Dark, Test Drive

Attention, Slow Dancing In The Dark, Test Drive

I just absolutely adore Jojis music. I have been a fan ever since he was doing music as Pink Guy. I just knew he had a serious music career ahead of himself.

This video is part of a project I’m working on. I’m learning to play my favourite albums on a ukulele. If you enjoyed it why not check out some other classic albums that I arranged. Like Kendrick Lamar or Gorillaz.

Joji Ukulele Tabs

Not sure how to read these? Check out my free course and you will be learning these ukulele tabs in no time.

Attention

A|---5---5-----------5-7-5-|----------------------------------------- 
E|-----2-------------------|-----------------------------------------
C|-2---------X3------------|-2-2-4-4-2-2-4-4-2-2-4-4-2-2-9----6---X2-
G|-----------------2-------|-----------------------------------------


Slow Dancing In The Dark

A|---------5-----------------------3-----------------------3-----------------------3------------
E|-----6-----6---6-------------3-----3---3-------------4-----4---4-------------3-----3---3------
C|---7---7-----7------2------3---3-----3------2------5---5-----5------2------3---3-----3------2-
G|-8-----------------------5-----------------------5-----------------------0--------------------

A|-6/8----6-6-5-5-3-5----6-5-3------6/8----6-6-5-5-3-10-6-5- E|-----------------------------3---------------------------- C|---------------------------------------------------------- G|----------------------------------------------------------
A|-6/8----6-6-5-5-3-3----3-5-3----10-----------------1-3-------------------6----5---- E|-----------------------------------10----10-8-6--------3-1-1-3-----------3----3---- C|------------------------------------------------------------------3-2----3----3---- G|-----------------------------------------------------------------------------------

Test Drive

A|---------------------6-5-3-5-3-----------
E|-3-4-3-4-3-6-------------------6---------
C|---------------x2------------------x2----
G|-----------------------------------------

MORE SONGS FROM THIS ALBUM?

Easy-to-print PDFs tabs for over 150 albums.

Easy-to-print PDFs tabs for over 150 albums.