Ukulele Utopia

A Virtual Learning Experience

Ye

I Thought About Killing You, All Mine, No Mistakes

A sonically beautiful album. Kanye West and “Ye” dips into a variety of his moods in a very calming and personal way. The album is short and sweet. Another amazing project that adds to this GOATs body of work. Today we are learning the Kanye West ukulele TABs for I Thought About Killing You, All Mine and No Mistakes.

This video is part of a project I’m working on. I’m learning to play my favourite albums on a ukulele. If you enjoyed it why not check out some other classic albums that I arranged like My Beautiful Dark Twisted FantasyArcade Fire or Bon Iver.

Kanye West Ukulele Tabs

Not sure how to read these? Check out this guide and you will be learning these ukulele tabs in no time.

I Thought About Killing You

This is a lovely little fingerpicking piece that sounds great on the ukulele. The first bar is the rhythm accompaniment and the second part is mimicking the vocal line

A|-----1-----1-----0--5--0-----0-----0-----0-----0--|-- 
E|-----1-----1-----0-----------1-----1-----1-----1--|--
C|--2-----2-----1-----------2-----2-----2-----2-----|--
G|--------------------------------------------------|--



A|--------------------------------------------------------------
E|--------------------------------------------------------5-5/3-
C|-2-0-2-0-2-2----2-0-2-0-2-2----2-0-2-0-2-2----2-0-2-0-2-------
G|--------------------------------------------------------------

All Mine

This section is the main vocal line sang by Ant Clemons. Im using a low G so the 4th fret might sound a little off for you but it should still work.

A|-----2-----------------------------------|-
E|-2-2--------3-2------5-5-3-3-2-2-2-2-2-2-|-
C|----------4------------------------------|-
G|----------------4------------------------|-

No Mistakes

Make no mistake, girl, i still love you.

A|-11-------11------------------|-11-------11------------------
E|----11-------11----8-6-4-6----|----11-------11----8-9-8-6----
C|------------------------------|------------------------------
G|------------------------------|------------------------------

More songs from this album?

Support the site by joining Learn The Licks and getting easy to print PDFs of 150+ albums

login

Badge Unlocked

Welcome To The Jungle

Complete your first lesson

Badge Unlocked

Start Me Up

Complete The Basics

The Basics

In this section, we will cover everything you need to know about starting to play the ukulele.