Ukulele Utopia

A Virtual Learning Experience

Damn

Blood, Pride, Humble

Time to go back to the roots of this channel and explore some more Hip Hop on ukulele. It was only a matter of time before I did a Kendrick album. I was a bit pushed for time otherwise I would have done the already legendary To Pimp A Butterfly. However, lets not forget how amazing his most recent release was. I had to learn it on the uke.

This video is part of a project I’m working on. I’m learning to play my favourite albums on a ukulele. If you enjoyed it why not check out some other classic albums that I arranged. Like Nirvana – NevermindRage Against The Machine – Debut Album or Taylor Swift – 1989.

Kendrick Lamar Ukulele Tabs

Not sure how to read these? Check out this guide and you will be learning these ukulele tabs in no time.

Blood

A|-----------------------6-----7-----9------9--11p9h11-----11--9--7------- 
E|--7--6--4-----4--6--7--------------11------------------------------7/4--
C|-----------------------------------11-----------------------------------
G|------------------------------------------------------------------------

Humble

A|---------------------|---------------------|---------------------|---------------------|-
E|---------------------|---------------------|---------------------|---------------------|-
C|-3-3----4-3--------4-|-3-3----4-3--------4-|-8-8----9-8-3-3----3-|-8-8----9-8-3-3----3-|-
G|------------1-1------|------------1-1------|---------------------|---------------------|-

Pride

A|-3----2-----------2----|
E|-0----3----2----2-2----|
C|-0----0----2----2-3----|
G|-0----2----2----2-2----|

More songs from this album?

Support the site by joining Learn The Licks and getting easy to print PDFs of 150+ albums

login

Badge Unlocked

Welcome To The Jungle

Complete your first lesson

Badge Unlocked

Start Me Up

Complete The Basics

The Basics

In this section, we will cover everything you need to know about starting to play the ukulele.