Aha Shake Heartbreak

Slow Night Slow Long, Day Old Blues, Four Kicks

Aha Shake Heartbreak simply solidifies the thoughts among many (myself included) that the Kings Of Leon are the best rock band to have come out of America for a long, long time. It is chock-full of lively, driving numbers, awash with Caleb’s Southern, twangy drawl, Nathan’s snappy and precise drumming and Matthew and Jared’s solid basslines and catchy riffing. Make no mistake, this is one of my favourite albums of all time!

This video is part of my Top 50 Albums on a ukulele project, if you enjoyed it why not check out some other albums that I arranged for ukulele. Like Nirvana – Nevermind or Arctic Monkeys – Whatever People Say I Am. Or Some of Kings Of Leon’s early inspirations like Led Zeppelin or Fleetwood Mac

kings of leon Ukulele Tabs

Not sure how to read these? Check out this guide and you will be learning these ukulele tabs in no time.

slow night, slow long

A|-7----------9-7-|-5-------------|
E|-5----------7-5-|-2-------------|
C|-4----------6-4-|-2-------------|
G|-4----------6-4-|-2-------------|

A|-7-7-7-7------7-7-7-7------10/12-12-12-12-12-9-------|-5-5-5-5------ E|---------5------------5------------------------12-10-|---------2---- C|-----------------------------------------------------|-------------- G|-----------------------------------------------------|--------------
Slowed down bit at the end “rise and shine all you...”
A|-0-------5-------2-2-2-------2-2-2-------| E|-0-------2-------3-3-3-------3-3-3-------| A|-0-------2-------2-2-2-------2-2-2-------| G|-2-------2-------------------------------|

A|--------------0----------0------|
E|---3-2------0--------------3----|
A|-2--------0--------0h2p0--------|
G|--------------------------------
|

Day Old Blues

A|--------------------------------|
E|-5-7----7-7-7-7----5-5-5----4-4-|
C|-6/8----8-8-8-8----6-6-6----4-4-|
G|--------------------------------|

A|-6-------------6-------6-------| E|-7---------7---------7-7-------| C|-8-----------8-----8---8-------| G|-9-------9-------9-----9-------|

Four Kicks

A|---------------------|-|---------|- 
E|-4----7----9----7----|-|-2-2-2-2-|-
C|-4----7----9----7----|-|-2-2-2-2-|-
G|-4----7----9----7----|-|-2-2-2-2-|-


More songs from this album?

Support the site by joining Learn The Licks and getting easy to print PDFs of 150+ albums

login

Badge Unlocked

Welcome To The Jungle

Complete your first lesson

Badge Unlocked

Start Me Up

Complete The Basics

The Basics

In this section, we will cover everything you need to know about starting to play the ukulele.