Red Morning Light, Wasted Time, Spiral Staircase

Red Morning Light, Wasted Time, Spiral Staircase

A feisty debut from a furious country rock band from Nashville, Tennessee. Im a huge fan of KOL and have been from the very start, when I first saw Mollys Chambers on MTV2, if anyone remembers that??

This video is part of a project I’m working on. I’m learning to play my favourite albums on a ukulele. If you enjoyed it why not check out some other classic albums that I arranged like The Killers, The Strokes & Kasabian

Kings Of Leon Ukulele Tabs

Not sure how to read these? Check out my free course and you will be learning these ukulele tabs in no time.

Red Morning Light

Chords

A|-2-2-2-2-2-2-2-2----0-0-0-0----2-1-7-7-7-7-7-7-7-7-|----2----------7----------|- E|-2-2-2-2-2-2-2-2----0-0-0-0----3-2-4-4-4-4-4-4-4-4-|----2----------4----------|- C|-3-3-3-3-3-3-3-3----1-1-1-1----2-1-4-4-4-4-4-4-4-4-|----3----------4----------|- G|-4-4-4-4-4-4-4-4----2-2-2-2--------4-4-4-4-4-4-4-4-|----4----------4----------|-

Vocal Line

A|-----------------------------------------------
E|-2-5-2-5-2-5-2-5/7-7----7-7----5-7-5-7-5-7-----
C|-------------------------------------------6-2-
G|-----------------------------------------------

Wasted Time

A|---7--------7-5-|----|---0-----------0-3/5-5-5---0---0---0-7----4h5p4-5p4-5p4-5p4-5p4-7-
E|----------------|----|-2-0-1/5-5-5-2-0---------2-0-2-0-2-0-4----------------------------
C|-4---4----4-----|----|-2-1---------2-1---------2-1-2-1-2-1-4----------------------------
G|----------------|----|-2-2---------2-2---------2-2-2-2-2-2-4----------------------------

Spiral Staircase

Spiral Staircase

A|-1-2-2----------1-2-2-------|-1----7--------2----|- E|-1-2-2----------1-2-2-------|-2----4----2-2-2----|- C|-2-3-3----------2-3-3-------|-1----4----2-2-3----|- G|-3-4-4----------3-4-4-------|-3----4----2-2-4----|-
A|----------------------------------------------------------3-5-------------------- E|-7----5-7-5-7-5-7----7----5-7-5-7-5-7----7----5-7-5-7-7-7-----7-5-7-7----7-5-7-7- C|--------------------------------------------------------------------------------- G|---------------------------------------------------------------------------------

MORE SONGS FROM THIS ALBUM?

Easy-to-print PDFs tabs for over 150 albums.

Easy-to-print PDFs tabs for over 150 albums.