Blind, Ball Tongue, Daddy

Blind, Ball Tongue, Daddy

Korn debut album arranged for four strings. This is Korn ukulele style! It was only going to be a matter of time before I attempted nu-metal on a ukulele again. So why not go for the daddies of it KORN!

This video is part of a project I’m working on. I’m learning to play my favourite albums on a ukulele. If you enjoyed it why not check out some other classic albums that I arranged. Like System of a Down or Rage Against The Machine.

Korn Ukulele Tabs

Not sure how to read these? Check out my free course and you will be learning these ukulele tabs in no time.

Blind

A|-4-4-4-4----4-4-4-4------------4-4-4-4----4-4-4-4---------------4-4-4-4----4-4-4-4------------
E|-3-3-3-3----3-3-3-3---5--------3-3-3-3----3-3-3-3------3---4----3-3-3-3----3-3-3-3------3---4-
C|------------------------3-1----------------------------1---2----------------------------1---2-
G|--------------------2--------------------------------2---2----------------------------2---2---


A|-4-4-4-4----4-4-4-4-----------------4-4-4-4-
E|-3-3-3-3----3-3-3-3-----------------3-3-3-3-
C|-------------------------------------------- Repeat 4 times
G|--------------------2-4-2-5-2-4-2-5---------


Ball Tongue

A|------------------------------------------------|
E|-----3-2-----3-2------------3-2-------6-----5---|
C|-2-3-----2-3-----3-2----2-3-----2-3-------------|
G|------------------------------------2---2-2---2-|

Daddy

A|---2------1------2------1---- 
E|-6------5------6------5------
C|-----------------------------
G|-----------------------------

MORE SONGS FROM THIS ALBUM?

Easy-to-print PDFs tabs for over 150 albums.

Easy-to-print PDFs tabs for over 150 albums.