Born To Die, Summertime Sadness, Lolita

Born To Die, Summertime Sadness, Lolita

The beautiful singer songwriter gets the ukulele treatment. She had a number of stage names before settling on Lana Del Rey. Before she became a household name, Lana Del Rey was known as Lizzy Grant. (Her full name is Elizabeth Woolridge Grant.) But before settling on her current moniker, the singer toyed with a number of different stage names including Sparkle Jump Rope Queen and May Jailer. She finally settled on Lana Del Rey during a trip to Miami with her sister, where she realized she “wanted a name that sounded sort of exotic and reminded me of like the seaside on the Floridian coast.”

This video is part of a project I’m working on. I’m learning to play my favorite albums on a ukulele. If you enjoyed it why not check out some other classic albums that I arranged. Like Lorde and Kayne West. 

Lana Del Ray Ukulele Tabs

Not sure how to read these? Check out my free course and you will be learning these ukulele tabs in no time.

Born To Die

A |------------------------------------------------------------------------------------------ 
E |-7-7-7-7-5-7-5---7-7-7-7-10-7-7-5---5-7-5-3-5-0-0-3-5-3-7---7-7-7-5-5-5---5-5-5-7-3-3-0-0-
C |-7----------------------------------------------------------------------------------------
G |------------------------------------------------------------------------------------------ 


A |---------5-7-5-----------------------------------------------
E |-3-3-5-7-------7-5---5-3-5-3-5-3-3-3-2---5-3-5---5-7-5-3-----
C |-4-4-6-7-------------------------------------------------4---
G |-------------------------------------------------------------


A |-7-7-7-7-7-7-7-7-9-10--7-7-7-7-7-7-7-7--9-12-9--9-9-9-9-10-9-7-
E |---------------------------------------------------------------
C |---------------------------------------------------------------
G |---------------------------------------------------------------

A |---------5-7-7-5---------------------------
E |-3-3-6-7---------7-5---3-5-3-5---5-3-5-3---
C |-4-4-7-7---------------------------------4-
G |-------------------------------------------


Summertime Sadness

A |-2-4-4-4-4-4-2-------------------|-4-4-4-4-4-4-4-7-9-7---4-4-4--7-9-7----|-6-9-9-6-6-4-
E |---------------4---2-2-2-2-2-----|---------------------------------------|-------------
C |-----------------------------4-1-|------------------------------------x3-|-------------
G |---------------------------------|---------------------------------------|-------------

Lolita

 A |-3-3-3-3-3-3-3-3-3-3-3-3-3-3--2-----------------------
 E |-5-5-5-5-5-5-5-5-5-5-5-5-5-5--4-----------------------
 C |-4-4-4-4-4-4-4-4-4-4-4-4-4-4--4-----4-4-4-4-4-4-4-4-4-
 G |------------------------------------------------------

MORE SONGS FROM THIS ALBUM?

Easy-to-print PDFs tabs for over 150 albums.

Easy-to-print PDFs tabs for over 150 albums.