Papercut, Crawling, A Place For My Head

Papercut, Crawling, A Place For My Head

What can be said about this album that hasn’t been said before? I don’t think there are words that could do this album justice. In short, this album is breathtaking. Every time I listen, I respect and understand the psyche of Chester and Co better. Like most people, I was left shocked and devastated by the death of Chester. He fought it so hard with such spirit. RIP Chester. Today we are learning Linkin Park Ukulele TABs.

This video is part of a project I’m working on. I’m learning to play my favourite albums on a ukulele. If you enjoyed it why not check out some other classic albums that I arranged like Nirvana – NevermindBlack Sabbath – Paranoid or Weezer – Blue Album.

Linkin Park Ukulele Tabs

Not sure how to read these? Check out my free course and you will be learning these ukulele tabs in no time.

Papercut

A|-4---6---7---6--------|-4----7-6-2----|---------------------------------------------------------- 
E|---4---4---4---4---x8-|-1----7-7-4----|----------------5-5-5-5-4-4-------------------5-5-5-5-7-4-
C|----------------------|-1----8-6-4----|-2-2-4-1-1-1-------------------2-2-4-1-1-1----------------
G|----------------------|---------------|----------------------------------------------------------

Crawling

A|---2----------------2--------------|---4-4-4-2-2---------------------------------
E|-----4-2-0---0--------4-2-0---0----|-------------5-4-5-4-5-4-0----0/5-4----2-5-4-
C|-1---------3------1---------3------|-1-------------------------------------------
G|-----------------------------------|---------------------------------------------

A Place For My Head

A|---------------------------------|
E|-----6-6-6-7-6-4-----------------|
C|-3-3-------------6-6-4-4-4-4-4-6-|
G|---------------------------------|

MORE SONGS FROM THIS ALBUM?

Easy-to-print PDFs tabs for over 150 albums.

Easy-to-print PDFs tabs for over 150 albums.

Badge Unlocked

Welcome To The Jungle

Complete your first lesson

Badge Unlocked

Start Me Up

Complete The Basics

The Basics

In this section, we will cover everything you need to know about starting to play the ukulele.