Cuz I Love You

Juice, Truth Hurts, Tempo

Such a beautiful and heartwarming album. Pure fun and personality impregnated in a diverse group of entertaining tracks. Lizzo’s genuine charisma and charm go a long way to make her self-empowerment messages actually convincing.

 

You might have noticed I wasn’t alone in this video. You may be thinking, hold up, why is that guy doing that to the microphone and why do I love it? This is Ukulele Simon – The Beatboxing Ukulele Guy. We have been chatting on Instagram for a while now and talks of doing something together have finally come to fruition. He’s a sleek uke player and his beatboxing skills are equally brilliant. 

This video is part of a project I’m working on. I’m learning to play my favorite albums on a ukulele. If you enjoyed it why not check out some other classic albums that I arranged. Like The Black Parade or Twenty One Pilots.

Lizzo Ukulele Tabs

Not sure how to read these? Check out this guide and you will be learning these ukulele tabs in no time.

Juice

Simon is super active on Instagram and YouTube, he has a real knack for combing his ability on the ukulele with his sublime beatboxing skills. Here is a rendition of Stevie Wonders “Supersition”.

A |-5-5--6-6-6-5--0-0--0-0---3--| 
E |-5-5--6-6-6-6--1-1--1-1-0-3--|
C |-5-5--5-5-5-5--2-2--2-2-0-0--|
G |-5-5--5-5-5-5--3-3--3-3-0-0--|

A |-----5--3--------------------------------------------------
E |-----------3-3-3-3-3-1-5--3-3-3-3-3-1-5--3-3-3-3-3-1-5-----
C |-2-2---------------------------------------------------2--- x2
G |-----------------------------------------------------------

A |-------------------------------------------------------
E |------1---------------------3-1-3-1-5--3-1-3-1-3-1-5---
C |--2-2-----2-2-0--2-2----2-2--------------------------2-
G |---------------------2---------------------------------

Truth Hurts

The first part is the opening riff that’s super recognisable. Altho this is tabbed for a low G it will still work with a normal high G ( what most ukuleles have ). The second part is the vocal line “why men great till they gotta be great”.

A |---3---3---0---0---|----------------------------|
E |-----3-------0-----|--3-5-3---------------------|
C |-0-----------------|--------4---4-4-4-4-5-4-0---|
G |---------2---------|----------------------------|

Tempo

This riff is 100% a finger blaster haha. It requires you to stretch your fingers all the way up the fretboard and quite quickly too. You are best using your pinky finger for the 9 on the first riff and the 13 on the second one. Each part is played 4 times.

A |-9-6-5-------------|--13-10-9---------------| 
E |-------7-----------|----------11------------|
C |---------6-3-2--x4-|-------------9-7-6---x4-|
G |-------------------|------------------------|


see more of ukulele simon

Simon is super active on Instagram and YouTube, he has a real knack for combing his ability on the ukulele with his sublime beatboxing skills. Here is a rendition of Stevie Wonders “Supersition”.

Another one of Simons skills is his use of effects pedals to make his playing as dynamic as possible. See him testing his mantle and putting his title of best ukulele beatboxer on the line below.

Another one of Simons’s skills is his use of effects pedals to make his playing as dynamic as possible. See him testing his mantle and putting his title of best ukulele beatboxer on the line below.

 

Please endeavor to check him and out and show some support for a tremendous member of the ukulele community.

More songs from this album?

Support the site by joining Learn The Licks and getting easy to print PDFs of 150+ albums

login

Badge Unlocked

Welcome To The Jungle

Complete your first lesson

Badge Unlocked

Start Me Up

Complete The Basics

The Basics

In this section, we will cover everything you need to know about starting to play the ukulele.