Ukulele Utopia

A Virtual Learning Experience

Melodrama

Green Light, Hard Feelings, Writer In The Dark

I, like many others, was first introduced to Lorde by her mega-hit Royals. Mega-hit probably doesn’t do that song justice. It was absolutely ginormous. It catapulted her onto the music scene. My initial thought was, this song is great but surely its a one hit wonder. I was wrong, very wrong! Her Pure Heroine album is gorgeous. The subtle production really let the songs shine. Safe to say, i was eagerly awaiting Melodrama, I’m not disappointed. Another fantastic album from this Kiwi hero.

This video is part of a project I’m working on. I’m learning to play my favorite albums on a ukulele. If you enjoyed it why not check out some other classic albums that I arranged. Like Billie Eilish or Lana Del Ray.

Lorde Ukulele Tabs

Not sure how to read these? Check out this guide and you will be learning these ukulele tabs in no time.

Green Light

A |-0-2-0---2-0-2--0-------------2-4-2--4-2-4---2-4-2--4-2-4- 
E |-3--------------0-2-0--2-0-2--5--------------5------------
C |-2--------------2-------------4--------------4------------
G |-0--------------2-------------0--------------0------------



A |-------------------------------------------5-4-5-9--9-7-7-7-
E |-5-5-7-5-----------7-7-5-------------3-3-2------------------
C |-----------4-6-4-----------6-6-4---2------------------------
G |------------------------------------------------------------


A |-----------5-4-5-9---9-9-9-7-7---12--12--12--12--12--12--12--12
E |---3-3-2-------------------------12--12--12--12--12--12--12--12
C |-2-------------------------------------------------------------
G |---------------------------------------------------------------

A |-----------5-4-5-9---7-9-9-9-7---12--12--12--12--12--12--12--12--12
E |---3-3-2-------------------------12--12--12--12--12--12--12--12--12
C |-2-----------------------------------------------------------------
G |-------------------------------------------------------------------


Hard Feelings

A |-6---4---2-----------2-2-2-4-4-6--4-6--4-6--2-4-4-2-4-4-2-4-4-2-4-6-----
E |---7---4---2-4---2-----------7----7----7----------------------------4-2-
C |---------------4--------------------------------------------------------
G |------------------------------------------------------------------------

Writer In The Dark

A |-------------5-5-------------5-5-----------------
E |---------7-7-----7-7-5-5---------7-7-5-5-3-7-3-2-
C |-2-2-7-7-----------------7-7---------------------
G |-------------------------------------------------

More songs from this album?

Support the site by joining Learn The Licks and getting easy to print PDFs of 150+ albums

login

Badge Unlocked

Welcome To The Jungle

Complete your first lesson

Badge Unlocked

Start Me Up

Complete The Basics

The Basics

In this section, we will cover everything you need to know about starting to play the ukulele.