Freaking Out The Neighbourhood, Annie, My Kind Of Women

Freaking Out The Neighbourhood, Annie, My Kind Of Women

Mac DeMarco is chill, quirky and weird. Guess what? that’s just how I like my music.

This video is part of a project I’m working on. I’m learning to play my favourite albums on a ukulele. If you enjoyed it why not check out some other classic albums that I arranged. Like This Old Dog or Muse – Showbiz.

Mac DeMarco Ukulele Tabs

Not sure how to read these? Check out my free course and you will be learning these ukulele tabs in no time.

Freaking Out The Neighbourhood

A |---6---6-----4-------4-------11-11-11-9-7-6-|---6---6-----4-------4----------------------|
E |-7---7---7-----6---6------------------------|-7---7---7-----6---6---------11-11-11-9-7-6-|
C |-----------------6-----6/8------------------|-----------------6-----6-8------------------|
G |--------------------------------------------|--------------------------------------------|

Annie

A |------2-------------------------------------
E |----2-----------5---------5---------2-------
C |--3-----------4---------4---------4---4-----
G |------------6---------6---------1-------1---

My Kind Of Women

A |-0---7-5-4------4-----4-----4-2-0------0-----0------------|
E |-0---4-4-5----5-----5-----5-5-4-0----0-----0-----0---4-2--|
C |-1---5-5-6--6-----6-----6-------1--1-----1-----1-----4-2--|
G |-2---------------------------------------------------4-2--|

MORE SONGS FROM THIS ALBUM?

Easy-to-print PDFs tabs for over 150 albums.

Easy-to-print PDFs tabs for over 150 albums.