This Old Dog

This Old Dog, One More Long Song, Moonlight On The River

Mac is someone I only very recently got into too. It was loads of my subscribers that urged me to check to him out. At first, I was confused, I almost thought it was comedy music. But I persisted with it and I’m glad I did. He’s a talented songwriter and has crafted an amazing album in “This Old Dog”.

This video is part of a project I’m working on. I’m learning to play my favourite albums on a ukulele. If you enjoyed it why not check out some other classic albums that I arranged like Foals – Total Life Forever, Muse – Absolution and Damien Rice – O.

Mac Demarco Ukulele Tabs

Not sure how to read these? Check out this guide and you will be learning these ukulele tabs in no time.

This Old Dog

A|--8/10-----8--6--5-----5p3h5--6-----5--3--------
E|------------------------------------------6--3--
C|------------------------------------------------
G|------------------------------------------------

A|--------3-----------------1-----------------5-------------------3----------- E|-----------3-----3-----3-----3-----3-----3-----3-----3-------------4-----4-- C|-----3--------3-----2-----------2-----5-----------5----------3--------3----- G|--5-----------------------------------------------------3h5-----------------

One More Long Song

A|-10------------------7----------------------------------------------------
E|-------12----10-8-10---8-7-------------------------------------10-8-10-12-
C|---------------------------9-7--------7-9------7------7-9/7---------------
G|-------------------------------9----9--------9------9---------------------

A|---5------7-------12-------12-|---5------7------7---- E|---0------8-------12-------12-|---0------8------5---- C|---4------9-------12-------12-|---4------9------7---- G|-5------7------12----------12-|-5------7------5------

Moonlight On The River

A|-------6----------------6----------|-------6----------------6----------|-
E|---4--------4---4---4--------4---4-|---4--------4---4---4--------4---4-|-
C|-----6--------6-------6--------6---|-----3--------3-------3--------3---|-
G|-4----------------4----------------|-4----------------4----------------|-

A|-------2----------------2----------|-------2----------------2----------|- E|---0--------0---0---0--------0---0-|---0--------0---0---0--------0---0-|- C|-1---1--------1---1---1--------1---|-1---1--------1---1---1--------1---|- G|-----------------------------------|-----------------------------------|-

More songs from this album?

Support the site by joining Learn The Licks and getting easy to print PDFs of 150+ albums

login

Badge Unlocked

Welcome To The Jungle

Complete your first lesson

Badge Unlocked

Start Me Up

Complete The Basics

The Basics

In this section, we will cover everything you need to know about starting to play the ukulele.