Human Nature, The Girl Is Mine, Thriller

Human Nature, The Girl Is Mine, Thriller

I had always liked Michael Jackson when I was a kid in the 90s, I was always watching The Wiz, seeing his music videos on TV and I even played his cassettes on my Talkboy. But I didn’t really get into him until I was 16 and going through the motions of being a teenager.I don’t know why, but there was something about Micheal Jackson’s music, or possibly his unusual, difficult life that comforted me. His music calms you yet inspires you.

 

Thriller is without a doubt one of the best albums in history, it’s my pleasure to bring it to you on the ukulele!

This video is part of a project I’m working on. I’m learning to play my favourite albums on a ukulele. If you enjoyed it why not check out some other classic albums that I arranged like Fleetwood MacKendrick Lamar or Queen.

Michael Jackson Ukulele Tabs

Not sure how to read these? Check out my free course and you will be learning these ukulele tabs in no time.

Human Nature

A|-2----5----4-------------2---0-----|-2----5----4-------------2-0- 
E|-3---------5----7p5------2-5-0h2p0-|-3---------5----7-7p5----2-0-
C|-2---------4--------4----2---1-----|-2---------4-------------2-1-
G|-------------------------0---2-----|-------------------------0-2-
 


A|-2----5----4-------------2---0-----|-2----5----5/7----7/9----5- E|-3---------5----7p5------2-5-0h2p0-|-3------------------------- C|-2---------4--------4----2---1-----|-2------------------------- G|-------------------------0---2-----|---------------------------

The Girl Is Mine

A|-7----5------------|----|-------------------|-
E|-7----5------------|----|-4-5-4-5-4-2-------|-
C|-8----6----4-6-4-6-|----|-4-6-4-6-4-2-1-2-4-|-
G|-------------------|----|-------------2-4-6-|-

A|-4-5-7-7-7-4-------4-5-7-7-7-4---|----|-7-4-------------5/7------5-4----------7--5------------ E|-------------7-5-7-------------7-|----|-----5-7-----5-7--------5-----5/2------7--5------------ C|---------------------------------|-x2-|-----------4----------------------4----8--6----4-6-4-6- G|---------------------------------|----|-------------------------------------------------------

Thriller

A|-8-6----6-5-3-|----------------|----|-----5-6-----------------------------6------- 
E|-8-6----6-5-3-|----------------|----|-6-8--------8p6--------6-8-8-6-8-6-8---8-6---
C|--------------|-0---0-3-5-3----|----|----------------7----7---------------------7-
G|--------------|---3------------|----|---------------------------------------------


MORE SONGS FROM THIS ALBUM?

Easy-to-print PDFs tabs for over 150 albums.

Easy-to-print PDFs tabs for over 150 albums.