Ukulele Utopia

A Virtual Learning Experience

Sigh No More

Sigh No More, Roll Away Your Stone, I Gave You All

I remember seeing these guys at The New Adelphi in Hull back in 2009. It’s a legendary, small sweaty club that puts on local bands and every now again has a half-decent band pass through. We have seen the likes of Radiohead, Green Day, Oasis, Pulp and loads more that have gone on to have huge success. I had a feeling Mumford & Sons would have a similar trajectory. I think the handful of people in the room with me thought the same thing. A month later they released Sigh No More and that was it. They have become one of the best British exports of the past 10 years.

This video is part of a project I’m working on. I’m learning to play my favourite albums on a ukulele. If you enjoyed it why not check out some other classic albums that I arranged like Damien RiceFleetwood Mac or Foals.

Mumford & Sons Ukulele Tabs

Not sure how to read these? Check out this guide and you will be learning these ukulele tabs in no time.

Sigh No More

A|---7----7---7---7---7---7---7---7---3---3---3---3---------------|-
E|---8----8---8---8---8---8---8---8---3---3---3---3-3-3h5p3-------|-
C|----------------------------------------------------------4/2/0-|-
G|-0---0---0---0---0---0---0---0---0---0---0---0------------------|-

A|-7-7----5-5----3----|----|-7-7----5-5-5----3----3h5p3-------5/7----10----5/7----10-|-
E|-8-8----7-7----3----|----|-8-8----7-7-7----3----------5p3--------------------------|-
C|--------------------|-x3-|--------------------------------4-2/4----------2/4-------|-
G|--------------------|----|-----------------------------------------5------------5--|-


Roll Away Your Stone

Main Riff and Harmony

A|----------------------------------------------|----------------------------------------------- E|-0h2h4------4-4/5----4/2/0----0h2h4-----0-2-2-|-0-2-4------4-4/5----4/2/0----0h2h4-----0-2-0-0 C|--------------------------------------1-------|--------------------------------------1-------- G|-------4----------------------------4---------|-------4----------------------------4----------

A|-----7h11----11-11/12----11-7-------7h11p7h11-11/14-14----
E|-7h9--------------------------7-7h9-----------------------
C|----------------------------------------------------------
G|----------------------------------------------------------
 
 A|-----7h11----11-11/12----11-7-------7h11p7h11-11/14-12-11- E|-7h9--------------------------7-7h9----------------------- C|---------------------------------------------------------- G|----------------------------------------------------------

I Gave You All

A|-12-----12---12-10-8-----8---8-10-3-5-7-3-----3---3-----3---3-
E|--------------------------------------------------------------
C|-9--9-9----9-9--7--5-5-5---5-5-7--0-2-4-0-0-0---0-0-0-0---0-0-
G|--------------------------------------------------------------

More songs from this album?

Support the site by joining Learn The Licks and getting easy to print PDFs of 150+ albums

login

Badge Unlocked

Welcome To The Jungle

Complete your first lesson

Badge Unlocked

Start Me Up

Complete The Basics

The Basics

In this section, we will cover everything you need to know about starting to play the ukulele.