Ukulele Utopia

A Virtual Learning Experience

Absolution

time is running out, sing for absolution, the small print

Muse remain an acquired taste. Bombastic, over-dramatic and often progressive in style, listeners usually decide to hate them with a passion or pronounce them the greatest thing in the history of the music. Can you guess how I feel about them?

This video is part of a project I’m working on. I’m learning to play my favourite albums on a ukulele. If you enjoyed it why not check out some other classic albums that I arranged. Like Radiohead or Placebo.

Muse Ukulele Tabs

Not sure how to read these? Check out this guide and you will be learning these ukulele tabs in no time.

time is running out

A|------------------|---------------------------7-----------------------|------------
E|-----8-------10---|-----8------7-7---7-------------------8-------10---|-----8------
C|-5-5---5-7-7----7-|-9-9---9--------9------4-4---4----5-5---5-7-7----7-|-9-9---9----
G|------------------|---------------------------------------------------|------------

A|-----7-----3--------------6-----3--------------------------7--------8-----5-----2-------- E|-----------------5--------------------5--------4-----7----------------------------------- C|----------------------------------------------------------------------------------------- G|-----------------------------------------------------------------------------------------
This bit requires a really fast picking technique! Play each note 8 times.

sing for absolution

A|-8-8---------10-10-|-8-8---------10-10-|-7-7---------8-8-|-7-7-----4-4-8-8-| 
E|-5---5-5-6-6-------|-----5-5-6-6-------|-4---4-4-7-7-----|-----3-3---------|
C|-5-----------------|-------------------|-4---------------|-----------------|
G|-------------------|-------------------|-----------------|-----------------|

the small print

A|---------5-------|---------5-------|
E|-----------------|-----------------|
C|-5-6-5-6---6-5-6-|-5-6-5-6---6-5-6-|
G|-----------------|-----------------|

More songs from this album?

Support the site by joining Learn The Licks and getting easy to print PDFs of 150+ albums

login

Badge Unlocked

Welcome To The Jungle

Complete your first lesson

Badge Unlocked

Start Me Up

Complete The Basics

The Basics

In this section, we will cover everything you need to know about starting to play the ukulele.