Starlight, Invincible, City Of Delusion

Starlight, Invincible, City Of Delusion

Muse certainly delivered again with this phenomenal album. I have said it before and i will say it again, muse are the modern-day queen. Each song is like a journey. My favorite track on the album is Map Of The Problematique. Just love that melody on the chorus.

This video is part of a project I’m working on. I’m learning to play my favourite albums on a ukulele. If you enjoyed it why not check out some other classic albums that I arranged. Like Arctic Monkeys or Placebo.

Muse Ukulele Tabs

Not sure how to read these? Check out my free course and you will be learning these ukulele tabs in no time.

Starlight

A |-6-----6-7-4---7-6-4-6-----6-7-----7-6-4-
E |---7---------4---------7-------7-4-------
C |-----6-------------------8---------------
G |-----------------------------------------

Invincible

A |-7-------7-------8-------8-------8-------8-------
E |---3-3-3---3-3-3---5-5-5---5-5-5---7-7-7---7-8-10
C |-------------------------------------------------
G |-------------------------------------------------

City Of Delusion

A |-0-0-0-0-0-0-0-0-0-0-0-0--|------------| 
E |-1-1-1-1-0-0-0-0-0-0-0-0--|--1---0-3-0-|
C |-2-2-2-2-1-1-1-1-1-1-1-1--|2---1-------|
G |-2-2-2-2-2-2-2-2-2-2-2-2--|------------|

MORE SONGS FROM THIS ALBUM?

Easy-to-print PDFs tabs for over 150 albums.

Easy-to-print PDFs tabs for over 150 albums.

Badge Unlocked

Welcome To The Jungle

Complete your first lesson

Badge Unlocked

Start Me Up

Complete The Basics

The Basics

In this section, we will cover everything you need to know about starting to play the ukulele.