Muscle Museum, Falling Down, Uno

Muscle Museum, Falling Down, Uno

Showbiz is just brilliant. What makes it particularly marvellous is the fact that it’s a debut album. It doesn’t happen often that a debut album is very good. But Muse have made a superior one. All of the songs are great. Particularly, Unintended, Muscle Museum, and Uno are simply fantastic. Although this was just their debut album they had already moulded their own style: wonderful falsetto, great contrasts, and amazing piano sections like the ones in Fillip and Cave.

This video is part of a project I’m working on. I’m learning to play my favorite albums on a ukulele. If you enjoyed it why not check out some other classic albums that I arranged. Like Absolution or Black Holes And Revelations.

Muse Ukulele Tabs

Not sure how to read these? Check out my free course and you will be learning these ukulele tabs in no time.

Muscle Museum

A|------------------|
E|--2---2---2---2---|
C|----1---1---1---1-|
G|------------------|

A|---------------------------------------------|------------------------------------------------ E|-----------------9-9-9-7-7-7-5-5-5-5-5-4h5p4-|-4-4-4-4-4-4-4-4-7-7-7-5-5-5-4-4-4-4-4-4-5-4-2-2 C|-6-6-6-6-6-6-6-6-----------------------------|------------------------------------------------ G|---------------------------------------------|------------------------------------------------
A|-4-4-4-4-7-7-7-7-5-5-5-5-5-5-5-5- E|--------------------------------- C|--------------------------------- G|---------------------------------

Falling Down

A |-0----------------------5--------7-5----0---------------------
E |-0----------------------2----2-------7--1---7-7h9-7-5---5-7/9-
C |-1-----1-------1-1h2-1--4------4--------2-------------6-------
G |-2---2---2-0------------2--2------------2---------------------

A |--2--2-----2-----2---0--0-----0-----0---0---| E |--0----0-----0-------0----0-----0-------0---| C |--2------2-----2-----2------2-----2-----1---| G |--1------------------2------------------2---|

Uno

A |-2-2---2-------------------4-3-2-2---2-----------4-3-2-----7---|
E |-----3-----0h2h3-2-2-0-0-----------2-----0h2h3-0-----------7---|
C |-----------------------------------------------------------7---|
G |-----------------------------------------------------------9---|

MORE SONGS FROM THIS ALBUM?

Easy-to-print PDFs tabs for over 150 albums.

Easy-to-print PDFs tabs for over 150 albums.