The End, Welcome To The Black Parade, Disenchanted

The End, Welcome To The Black Parade, Disenchanted

I don’t remember the last time I was so instantly caught up in an album as I did this one. It absolutely reeks of energy and life, ironic considering it’s about death.

Today we are learning to play three songs from this stellar My Chemical Romance album. The End, Welcome To The Black Parade and Disenchanted. To get an idea of how of the timings, I suggest you check out my ukulele arrangement of the album below.

This video is part of a project I’m working on. I’m learning to play my favorite albums on a ukulele. If you enjoyed it why not check out some other classic albums that I arranged like Blink 182Jimmy Eat World or Linkin Park.

My Chemical Romance Ukulele Tabs

Not sure how to read these? Check out my free course and you will be learning these ukulele tabs in no time.

Levitate

A|---2-2----0-2------0-2-0--------0-2----0-2---0-2-0---0----4-4-4-4----4-4-4-4----3-3-3-3-3-
E|-3---------------3-------3-3---------------3-------3--------------------------------------
C|-2----------------------------------------------------------------------------------------
G|-0----------------------------------------------------------------------------------------

A|-3-3-3-3-3----3-2-5-5-5-3-3-3-2-0--------2-2-2-2----2-0------2-0--------4-4-4-4----0-----0-
E|----------------------------------3-3-------------------3--------3-3-----------------3-3---
C|-------------------------------------------------------------------------------------------
G|-------------------------------------------------------------------------------------------
 


A|-5----5----5----5-7-9-7----5----2----2----4----2- E|-3----3----3----3-5-7-5----3----0----0----2----0- C|------------------------------------------------- G|-------------------------------------------------

A|-11----11----11----11-12-11-10----10----12----10-
E|-9-----9-----9-----9--10-9--8-----8-----10----8--
C|-------------------------------------------------
G|-------------------------------------------------

Morph

A|-10----9-14-7----5-10-3----2-7-0-|------------------------2/5-2------2/5-5-2------2-----
E|---------------------------------|--------3-5----3-5-7----------3------------3------3---
C|---------------------------------|-2----2---------------------------------------------2-
G|---------------------------------|------------------------------------------------------

Disenchanted

A|-5---5---5-------------------
E|---5---5---5-3---3---3-5-3---
C|---------------6---6-------6-
G|-----------------------------

MORE SONGS FROM THIS ALBUM?

Easy-to-print PDFs tabs for over 150 albums.

Easy-to-print PDFs tabs for over 150 albums.