Ukulele Utopia

A Virtual Learning Experience

Bleach

Blew, Swap Meat, Mr Moustache

Bleach is less commercial, less polished, less mature, but in a way more charming than their later releases. Personally, I do prefer In Utero and Nevermind. But Bleach is hard to ignore as a very important step on the way of development of Nirvana’s music. I had to tackle it on the ukulele.

This video is part of a project I’m working on. I’m learning to play my favourite albums on a ukulele. If you enjoyed it why not check out some other classic albums that I arranged like RadioheadSmashing Pumpkins or Pearl Jam.

Nirvana Ukulele Tabs

Not sure how to read these? Check out this guide and you will be learning these ukulele tabs in no time.

Blew

A|---------------------|-|---6-8-9-9-9-8-8-6-8-8-6-|- 
E|---------------------|-|-8-----------------------|-
C|-0-0-3-5-6-5-3-0-5-5-|-|-------------------------|-
G|---------------------|-|-------------------------|-

Swap Meat

A|-----4--------4-------4--------4---------4- 
E|-------------------------------------------
C|-3-6------3-6---6-3-6------3-6---3h6p3-6---
G|-------------------------------------------

Mr Moustache

A|---3-------------|---3-------------|---3-------------|---3-------------|-
E|-4---4-3-2-1-2-3-|-4---4-3-2-1-2-3-|-4---4-3-2-1-2-3-|-4---4-3-2-1-2-3-|-
C|-----------------|-----------------|-----------------|-----------------|-
G|-----------------|-----------------|-----------------|-----------------|-

More songs from this album?

Support the site by joining Learn The Licks and getting easy to print PDFs of 150+ albums

login

Badge Unlocked

Welcome To The Jungle

Complete your first lesson

Badge Unlocked

Start Me Up

Complete The Basics

The Basics

In this section, we will cover everything you need to know about starting to play the ukulele.