Serve the servants, Scentless Apprentice, Heart shaped box

Serve the servants, Scentless Apprentice, Heart shaped box

My top 50 albums of all time on a ukulele. This week sees the return of Nirvana with their sublime album In Utero on ukulele. 

Nirvana Ukulele Tabs

Not sure how to read these? Check out my free course and you will be learning these ukulele tabs in no time.

Serve the servants

A|-3----8-3-|-----------------------4---4---|---3---3-3------3---3-3---- 
E|-3--------|-----4------4------------------|---------------------------
C|-1--------|---2----------1----3-3---3---3-|---3---3-3------3---3-3----
G|----------|-3--------3--------------------|-5---5--------3---3--------


Scentless Apprentice

A|------------------------------- -------------------------------
E|-6----6-6-7-7-7-7-8-8-8-8-9---- -6----6-6-7-7-7-7-8-8-8-8-9----
C|-5----5-5-6-6-6-6-7-7-7-7-8---- -5----5-5-6-6-6-6-7-7-7-7-8----
G|------------------------------- -------------------------------

Heart Shaped Box

A|------11--------7---------------|------11--------7-------------------
E|---11----11---7---7-----4---4---|---11----11---7---7---1-1---1-------
C|-8----------4-------1-1---1---1-|-8----------4-------1---------------
G|--------------------------------|--------------------------4---4-1-4-


Vocal Line

A|-------4-6-4----------------
E|-4-6-7-------6-7-6----6-4-4-
C|----------------------------
G|----------------------------


MORE SONGS FROM THIS ALBUM?

Easy-to-print PDFs tabs for over 150 albums.

Easy-to-print PDFs tabs for over 150 albums.